Cifra Club

Mermaids

Xandria

Cifra: Principal (violão e guitarra)
Selo Cifra Club: esta cifra foi revisada para atender aos critérios oficiais da nossa Equipe de Qualidade.
tom: Cm
Intro
Guitar 1
E|-------------------------------------------------------------------|
B|-------------------------------------------------------------------|
G|-------------12v---14b15r14----------------------------------------| x 2
D|-------12h15----------------12v----12h13-15v----12b13v-13\-10vv----|
A|-------------------------------------------------------------------|
E|-------------------------------------------------------------------|

Guitar 2:
     C5         G5        Bb5       F5
E|---------------------------------------------|
B|---------------------------------------------|
G|---------------------------------------------|
D|--55555555--55555555--33333333--33333333-----| x 2
A|--33333333--55555555--11111111--33333333-----|
E|------------55555555------------33333333-----|

Verse 1
Guitar 2(w/tremolo)
E|-------|
B|-------|
G|--5~---|
D|--5~---|
A|--3~---|
E|-------|
   Try…..

E|-----------------------------------------------------------------------|
B|-----------------------------------------------------------------------|
G|-----------------------------------------------------------------------| x2
D|----5-----5-----5--------------------3-----3-----3---------------------|
A|----3-3-3-3-3-3-3-3--5-----5-----5---1-1-1-1-1-1-1-1--3-----3-----3----|
E|---------------------5-5-5-5-5-5-5-5------------------3-3-3-3-3-3-3-3--|
        . .   . .   .    . .   . .   .   . .   . .   .    . .   . .   .

     Lie…..

     G5    Ab5
E|---------------------|
B|---------------------|
G|---------------------|
D|----5~----6~----5----|
A|----5~----6~----5----|
E|----5~----6~----5----|
                  X

  Don’t dive…     The sea!!

Chorus (both guitars)
E|----------------------------------------------|
B|----------------------------------------------|
G|----------------------------------------------|
D|----55555555--55555555--33333333--33333333----|
A|----33333333--55555555--11111111--33333333----|
E|--------------55555555------------33333333----|
   Come and be….

E|------------------------------------------|
B|------------------------------------------|
G|------------------------------------------|
D|----55555555--55555555--33333333--3333----|
A|----33333333--55555555--11111111--3333----|
E|--------------55555555------------3333----|



Verse 2

Guitar 2
E|-----------------------------------------------------------------------|
B|-----------------------------------------------------------------------|
G|-----------------------------------------------------------------------| x2
D|----5-----5-----5--------------------3-----3-----3---------------------|
A|----3-3-3-3-3-3-3-3--5-----5-----5---1-1-1-1-1-1-1-1--3-----3-----3----|
E|---------------------5-5-5-5-5-5-5-5------------------3-3-3-3-3-3-3-3--|
        . .   . .   .    . .   . .   .   . .   . .   .    . .   . .   .

E|---------------------|
B|---------------------|
G|---------------------|
D|----5~----6~----5----|
A|----5~----6~----5----|
E|----5~----6~----5----|
                  X
Don’t dive…     The sea!!


Guitar 1: natural harmonics



Chorus again

Bridge(Both guitars)
      F5        G5      Eb5      
E|-----------------------------------------------------------|
B|-----------------------------------------------------------|
G|-----------------------------------------------------------|
D|--------------5---5-5--1~---5--33~----1-11--3-33--33--55~--|
A|----333-3~----5---5-5--1~---5--33~----1-11--3-33--33--55~--|
E|----333-3~----5---5-5--1~---5--33~----1-11--3-33--33--55~--|
                      .                   ..    ..  ..
        
E|-----------------------------------------------------------|
B|-----------------------------------------------------------|
G|-----------------------------------------------------------|
D|----5-5--1~----5--33~----3333333333--5--55--1~----5-5-1~---|
A|----5-5--1~----5--33~----3333333333--5--55--1~----5-5-1~---|
E|----5-5--1~----5--33~----3333333333--5--55--1~----5-5-1~---|
        .                                  .
 
E|-----------------------------------------------------------|
B|-----------------------------------------------------------|
G|-----------------------------------------------------------|
D|--1-1-1--3-3-3--3-3-55-----5-5-1~----5-5-3~----3-333-3-----|
A|--1-1-1--3-3-3--3-3-55~----5-5-1~----5-5-3~----3-333-3-----|
E|--1-1-1--3-3-3--3-3-55~----5-5-1~----5-5-3~----3-333-3-----|
      . .    . .               .                       x

Just before final chorus
E|------------------------------|
B|------------------------------|
G|------------------------------|
D|----5-5---5-5----6-6---6-6----|
A|----5-5---5-5----6-6---6-6----|
E|----5| 5---5-5----6-6---6-6----|
        .     .      .     .

Then chorus till the end

| /  slide up
| \  slide down
| h  hammer-on
| p  pull-off
| ~  let ring
| +  harmonic
| x  Mute note with fretting finger/s
| v  vibrato
|  . palm mute

Verse 1
sigh - for they make you feel alive 
try - it's just one step aside 
fly - over seas of drunken wine 
lie - cause you'll never draw a line 
Don’t dive too deep -too deep into the sea 

Chorus
come and be a child of the blue 
we make the azure dream come true 
verse 2
cry - for they leave you cold and dead 
ride - til the last of suns is set 
don't dive too deep - too deep into the sea 

Chorus
come and be a child of the blue 
we make the azure dream come true 

Bridge
i drift and fall - sapphire spear inside 
they come for me and softly close my eyes 

Verse 3
fight - for this is your last chance 

Chorus
come and be a child of the blue 
leave the past, we make it new 
you will always be our child
00:00 / 00:00
Outros vídeos desta música
Repetir
Outros vídeos desta música
20 exibições
    • ½ Tom
    • Am
    • Bbm
    • Bm
    • Cm
    • C#m
    • Dm
    • Ebm
    • Em
    • Fm
    • F#m
    • Gm
    • G#m
  • Adicionar à lista

Afinação da cifra

Afinador online

    0 comentários

    Ver todos os comentários

    Entre para o Cifra Club PRO

    Tenha acesso a benefícios exclusivos no App e no Site

    • Chega de anúncios

    • Mais recursos no app do Afinador

    • Atendimento Prioritário

    • Aumente seu limite de lista

    • Ajude a produzir mais conteúdo

    00:00 / 00:00

    Cifra Club Pro

    Aproveite o Cifra Club com benefícios exclusivos e sem anúncios
    Cifra Club Pro
    Aproveite o Cifra Club com benefícios exclusivos e sem anúncios
    OK