Cifra Club

Salome

Xandria

Cifra: Principal (violão e guitarra)
Selo Cifra Club: esta cifra foi revisada para atender aos critérios oficiais da nossa Equipe de Qualidade.
tom: C
[Verse]
E|------------------------------------|
B|------------------------------------|
G|---------0--------------------------|
D|-------2---2---------2-----5---5----|
A|-----2-------2-----2---2------------|
E|-0-------------0---------3---3------| x4

[Verse]
E|----------------------------------------------------------------------|
B|-------------------------------------------2-------1-------2----------|
G|---------0-----------0-------------------2-----2-------2-------2------|
D|-------2---2-----------0---------------2---------2-------2--------2---|
A|-----2-------2-----2--------2-------0---------------------------------|
E|-0-------------3----------3---3-5/7-----------------------------------|

E|-------------------------------------------------------------------|
B|-------------------------------------------2-------1---------------|
G|---------0-----------0-------------------2-----2-------2---0-------|
D|-------2---2-----------0---------------2---------2-------2-------2-|
A|-----2-------2-----2--------2-------0--------------------------2---|
E|-0-------------3----------3---3-5/7--------------------------------|

E|--------------------------------------------------------------------|
B|------------------------------------------2-------1-------3---------|
G|---------0-----------0------------------2-----2-------2-------2-----|
D|-------2---2-----------0--------------2---------2-------2--------2--|
A|-----2-------2-----2--------2-------0-------------------------------|
E|-0-------------3----------3---3-5/7---------------------------------|

E|--------------------------------------------------|
B|-------------------------------------------2--1---|
G|---------0-----------0-------------------2-2--2---|
D|-------2---2-----------0---------------2---2--2---|
A|-----2-------2-----2--------2-------0-------------|
E|-0-------------3----------3---3-5/7---------------|

[Chorus]
E|---------------------------------------------------------------------------------|
B|---------------------------------------------------------------------------------|
G|--------------------7----5--5------------------------------7----5--5------5-4-2--|
D|-2----------------x-7----5--5----------2-----------------x-7----5--5------5-4-2--|
A|-2-/-7---------\5---5----3--3----------2--/-7---------\5---5----3--3------3-2-0--|
E|-0--------------------------------/3-2-0-----------------------------------------|

E|-----------------------------------------------------------------------------------|
B|-----------------------------------------------------------------------------------|
G|-2----2----4----4----5-5-5-5----5-----------2----2----4----4----5---5----7-----7-7-|
D|-2----2----4----4----5-5-5-5-x--5---2-------2----2----4----4----5---5-x--7-----7-7-|
A|-0----0----2----2----3-3-3-3----3---2-------0----0----2----2----3---3----5-----5-5-|
E|------------------------------------0----------------------------------------------|
                                                                                 Pm * *

[Verse] x4
[Verse]
[Chorus]

 Bridge (clean)
E|---------------------------------|
B|---------------------------------|
G|---------------------------------|
D|-------9----7--------------------|
A|---7-9-----------10----9---------|
E|-7--------------------------10-9-| x8

[Solo] (with lot of misatkes)
E|---------------------------------------------------------------------|
B|---------------------------------------------------------------------|
G|---------------------------------------------------------------------|
D|-2---2/3--2---/7-6--7--9b---9----2--2/3--2---/7-9-10--9--7h9p7-6-----|
A|-2-------------------------------2-----------------------------------|
E|-0-------------------------------0-----------------------------------|

E|--------------------------------------------------------|
B|--------------------------------------------------------|
G|-------------------13-14-16----14h16p14-13--------------|
D|---14---15-14---14-------------------------15-14--------|
A|-------------------------------------------------15-14--|
E|-12-----------------------------------------------------|

E|---------------------------------------------|
B|---------------------------------------------|
G|------------------13-14/17--16--\14-13-14-16-|
D|---14--15-14---15----------------------------|
A|---------------------------------------------|
E|-12------------------------------------------|

E|-13-0-0-12-0-0-10-0-12-0-13-0-12-0-10-0-13-0-0-0-10-0-12-0-13p12p10-----------------------|
B|---------------------------------------------------------------------13p12p10-------------|
G|------------------------------------------------------------------------------13p12p10\9--|
D|------------------------------------------------------------------------------------------|
A|------------------------------------------------------------------------------------------|
E|------------------------------------------------------------------------------------------|

E|-13-0-0-12-0-0-10-0-15-0-13-0-13-0-12-0-4h5/7-0-5h7/8-0-7h8/10-------------|
B|----------------------------------------------------------------/12-\\\----|
G|---------------------------------------------------------------------------|
D|---------------------------------------------------------------------------|
A|---------------------------------------------------------------------------|
E|---------------------------------------------------------------------------|

E|--------------------------------------------------|
B|---------------------9h10h12/13\12p10p9-----------|
G|-9--9-9-9--9--9h10h12-------------------12p10p9---|
D|--------------------------------------------------|
A|--------------------------------------------------|
E|--------------------------------------------------|
E|-----------10| still bending--|
B|-------------------------------T--------T-----T-----T---------------|
G|---------------------9h10b-----16----10-16-10-16-10-16-10---/9------|
D|-9--9-9-9--9--9h10h12-----------------------------------------------|
A|--------------------------------------------------------------------|
E|--------------------------------------------------------------------|
E|--------------------------------------------------------------------|

E|--------------------------------------------10h12h13p12p10--------------------|
B|--10h12h13-9h10h12-10h12h13-9h10h12-10h12h13--------------13p12p10------------|
G|------------------------------------------------------------------13p12p10\9--|
D|------------------------------------------------------------------------------|
A|------------------------------------------------------------------------------|
E|------------------------------------------------------------------------------|

[Bridge]
E|--------------------------------------------------| |--------------------------|
B|--------------------------------------------------| |--------------------------|
G|--------------------------------------------------| |--------------------------|
C|-999-999-999-999-999-101010-101010-777-777-101010-|   |-999-101010-121212-141414-|
G|-777-777-777-777-777-8-8-8--8-8-8--555-555-8-8-8--| |-777-8-8-8--101010-121212-|
D|--------------------------------------------------| x4 |--------------------------|

E|---------------------------------------| |-------------------------------------------|
B|---------------------------------------| |-------------------------------------------|
G|--------------------7----5--5----------| |---------------------7----5--5------5-4-2--|
D|-2----------------x-7----5--5----------| |-2-----------------x-7----5--5------5-4-2--|
A|-2-/-7---------\5---5----3--3----------| |-2--/-7---------\5---5----3--3------3-2-0--|
E|-0--------------------------------/5-3-| x3 |-0-----------------------------------------|

E|----------------------------------------------------------------------------------|
B|----------------------------------------------------------------------------------|
G|-2----2----4----4----5-5-5-5----5-----------2----2----4----4----5---5----7-~~-----|
D|-2----2----4----4----5-5-5-5-x--5---2-------2----2----4----4----5---5-x--7-~~-----|
A|-0----0----2----2----3-3-3-3----3---2-------0----0----2----2----3---3----5-~~-----|
E|------------------------------------0---------------------------------------------|
                                                                                
E|------------------------------------| |---------------------------------3------|
B|------------------------------------| |---------------------------------3------|
G|---------0--------------------------| |---------0-----------------------0------|
D|-------2---2---------2-----5---5----| |-------2---2---------2-----5---5--------|
A|-----2-------2-----2---2------------| |-----2-------2-----2---2----------------|
E|-0-------------0---------3---3------| x3 |-0-------------0---------3---3---3------|


************************************

| /  Slide up
| x  Dead note
| \  Slide down
| h  Hammer-on
| p  Pull-off
| b  Bend
| ~  Vibrato
00:00 / 00:00
Outros vídeos desta música
Repetir
Outros vídeos desta música
14 exibições
    • ½ Tom
    • A
    • Bb
    • B
    • C
    • Db
    • D
    • Eb
    • E
    • F
    • F#
    • G
    • Ab
  • Adicionar à lista

Afinação da cifra

Afinador online

    0 comentários

    Ver todos os comentários

    Entre para o Cifra Club PRO

    Tenha acesso a benefícios exclusivos no App e no Site

    • Chega de anúncios

    • Mais recursos no app do Afinador

    • Atendimento Prioritário

    • Aumente seu limite de lista

    • Ajude a produzir mais conteúdo

    00:00 / 00:00

    Cifra Club Pro

    Aproveite o Cifra Club com benefícios exclusivos e sem anúncios
    Cifra Club Pro
    Aproveite o Cifra Club com benefícios exclusivos e sem anúncios
    OK