Cifra Club

Uncle

Xavier Rudd

Cifra: Principal (violão e guitarra)
Selo Cifra Club: esta cifra foi revisada para atender aos critérios oficiais da nossa Equipe de Qualidade.
tom: Bm
E|E|-------------------------------------------------------------------------------||
                             UNCLE - Xavier Rudd
E|E|-------------------------------------------------------------------------------||
Tabbed by: Darrenjag
NOTE: This is very much a WIP, and it's best to listen to the track to work out the
exact timing. I'm posting it nonetheless to see if anyone can help finish it.
Tuning: I can't be sure what he plays this in. It's definitely an open tuning, and I
suspect it's based on Open E, but I don't actually know. So I'm going to tab this as if it
were E-B-E-G#-B-E, even if E-B-E-E-B-E is the most likely suspect. I actually found this 
in C-G-C-G-C-C. Getting confusing, aye?
Scale: F# Aeolian (natural minor)

First guitar repeats.
E|-10-10-9-5-5-7-5-4-5-5---------10-10-10-9-5-5-7-5-4-5-5-4------------------|
B|---------------------------------------------------------------------------|
G|---------------------------------------------------------------------------|
D|---------------------------------------------------------------------------|
A|---------------------------------------------------------------------------|
E|---------------------------------------------------------------------------|

After a couple of bars of the riff above, second guitar lets the chord ring at the end
of each bar. It's possible to pull both off on the same guitar with a capo on the 
second fret (F#), but it'll
have to come off before the bit where the song speeds up.
                         A5    F#5                        A5    F#5
E|---------------------------------------------------------------------------|
B|---------------------------------------------------------------------------|
G|---------------------------------------------------------------------------|
D|-----------------------5-----2--------------------------5-----2------------|
A|-----------------------5-----2--------------------------5-----2------------|
E|-----------------------5-----2--------------------------5-----2------------|

Leading up to the start of the verse, first guitar starts using the following variations:
E|-10-10-9-5-5-7-9-7-5-4-----------------------------------------------------|
B|---------------------------------------------------------------------------|
G|---------------------------------------------------------------------------|
D|---------------------------------------------------------------------------|
A|---------------------------------------------------------------------------|
E|---------------------------------------------------------------------------|
00:00 / 00:00
Outros vídeos desta música
Repetir
Outros vídeos desta música
4 exibições
    • ½ Tom
    • Am
    • Bbm
    • Bm
    • Cm
    • C#m
    • Dm
    • Ebm
    • Em
    • Fm
    • F#m
    • Gm
    • G#m
  • Adicionar à lista

Afinação da cifra

Afinador online

    0 comentários

    Ver todos os comentários

    Entre para o Cifra Club PRO

    Tenha acesso a benefícios exclusivos no App e no Site

    • Chega de anúncios

    • Mais recursos no app do Afinador

    • Atendimento Prioritário

    • Aumente seu limite de lista

    • Ajude a produzir mais conteúdo

    00:00 / 00:00

    Cifra Club Pro

    Aproveite o Cifra Club com benefícios exclusivos e sem anúncios
    Cifra Club Pro
    Aproveite o Cifra Club com benefícios exclusivos e sem anúncios
    OK