Cifra Club

Normal

Ximena Sariñana

Cifra: Principal (violão e guitarra)
Selo Cifra Club: esta cifra foi revisada para atender aos critérios oficiais da nossa Equipe de Qualidade.
tom: Em
      E A D G B E       E A D G B E
E|-----------| -----------





Bm     Bm6    G
La soledad es un paso firme
E                     G
que no he podido obligarme a dar
Bm     Bm6     G
el corazón no tiene remedio
E                  G
con la vejez deja de funcionar.

   B         B*
Y que felicidad
  F#m       E
hacerte la cena
   B         B*
y que seguridad
  F#m           E
saber que me esperas.

      G          E
Y el tiempo pasará
    G           E
el sol se apagará
   G       E
y todo lo que
    G      E     Bm
sentiste fué normal.


Bm - E - C - G (2 Veces)


Bm      Bm6      G
Todo el amor es desasosiego
E                      G
de lo que termina por desaparecer
  Bm     Bm6        G
y todo lo que me dijiste a medias
 E                    G
son el lenguaje que no aprenderé

   B         B*
Y que felicidad
  F#m        E
llenarte la taza
   B         B*
y que seguridad
  F#m          E
tenerte en la casa.

      G          E
Y el tiempo pasará
    G           E
el sol se apagará
   G       E
y todo lo que
    G      E     Bm
sentiste fué normal.


Bm - E - C - G (4 Veces)


 Y que      felicidad
E|-11---11---11----13---13---13----|
B|-12---12---12----12---12---12----|
G|----11---11---11----11---11---11-|

 hacerte    A  cena
E|--9---9---9---7---7---7---|
B|-10--10--10---9---9---9---|
G|----9---9---9---9---9---9-|

 y que       seguridad
E|-11---11---11----13---13---13----|
B|-12---12---12----12---12---12----|
G|----11---11---11----11---11---11-|

 saber que me esperas.
E|--9---9---9---7---7---7---|
B|-10--10--10---9---9---9---|
G|----9---9---9---9---9---9-|

 Y que    tranquilidad
E|-11---11---11----13---13---13----|
B|-12---12---12----12---12---12----|
G|----11---11---11----11---11---11-|

ser siempre  felices
E|--9---9---9---7---7---7---|
B|-10--10--10---9---9---9---|
G|----9---9---9---9---9---9-|

 y que       facilidad
E|-11---11---11----13---13---13----|
B|-12---12---12----12---12---12----|
G|----11---11---11----11---11---11-|

 creer  lo que dices.
E|--9---9---9---7---7---7---|
B|-10--10--10---9---9---9---|
G|----9---9---9---9---9---9-|


      G          E
Y el tiempo pasará
    G           E
el sol se apagará
   G       E
y todo lo que
    G      E     Bm
sentiste fué normal.

    Bm - E - C - G
normal...
    Bm - E - C - G
normal...
    Bm - E - C - G
normal...
    Bm - E - C - G
normal...


Saludos para Colima, a la gente de la Antigua
que es el bar donde tocamos los fines de semana;
y la canción se la dedico a una persona muy especial
para mí, Te quiero mucho y 3 kg de U knows.
Outros vídeos desta música
246 exibições
    • ½ Tom
    • Am
    • Bbm
    • Bm
    • Cm
    • C#m
    • Dm
    • Ebm
    • Em
    • Fm
    • F#m
    • Gm
    • G#m
  • Adicionar à lista

Afinação da cifra

Afinador online

    0 comentários

    Ver todos os comentários

    Entre para o Cifra Club PRO

    Tenha acesso a benefícios exclusivos no App e no Site

    • Chega de anúncios

    • Mais recursos no app do Afinador

    • Atendimento Prioritário

    • Aumente seu limite de lista

    • Ajude a produzir mais conteúdo

    Cifra Club Pro

    Aproveite o Cifra Club com benefícios exclusivos e sem anúncios
    Cifra Club Pro
    Aproveite o Cifra Club com benefícios exclusivos e sem anúncios
    OK