Cifra Club

Tonto

Xutos e Pontapés

Cifra: Principal (violão e guitarra)
Selo Cifra Club: esta cifra foi revisada para atender aos critérios oficiais da nossa Equipe de Qualidade.
tom: G
[Intro]
   D           C           G6/B
E|----2------|----0------|----0------|---------------------------|
B|-------3---|-------1---|-------3---|---------------------------|
G|---------2-|---------0-|---------0-|---------------------------|
D|-0---------|-----------|-----------|---------------------------|
A|-----------|-3---------|-2---------|-1--0-2-3------------------|
E|-----------|-----------|-----------|---------------------------|

   D           C           G6/B        Bb5
E|----2------|----0------|----0------|---------------------------|
B|-------3---|-------1---|-------3---|---------------------------|
G|---------2-|---------0-|---------0-|-3-------------------------|
D|-0---------|-----------|-----------|-3-------------------------|
A|-----------|-3---------|-2---------|-1-------------------------|
E|-----------|-----------|-----------|---------------------------|

[Verse]
E                    F#m
Eu senti-me um pouco tonto
E               F#m
Sem saber o que fazer
G#m                 Am
Talvez fosse a tua imagem
E      Dsus2         A
Talvez fosse por querer

E                     F#m
Ao certo abriste-me a porta
E                 F#m
Mas eu não queria entrar
G#m             Am
Só queria uma miragem
E      Dsus2     A
Só queria naufragar (x2)

[Chorus]
Bm                F#m
Faz tanto tempo...tanto tempo
Bm                 A           G
Faz tanto tempo, e eu não esqueci

[Bridge]
   D           C           G6/B
E|----2------|----0------|----0------|---------------------------|
B|-------3---|-------1---|-------3---|---------------------------|
G|---------2-|---------0-|---------0-|---------------------------|
D|-0---------|-----------|-----------|---------------------------|
A|-----------|-3---------|-2---------|-1--0-2-3------------------|
E|-----------|-----------|-----------|---------------------------|

   D           C           G6/B        Bb5
E|----2------|----0------|----0------|---------------------------|
B|-------3---|-------1---|-------3---|---------------------------|
G|---------2-|---------0-|---------0-|-3-------------------------|
D|-0---------|-----------|-----------|-3-------------------------|
A|-----------|-3---------|-2---------|-1-------------------------|
E|-----------|-----------|-----------|---------------------------|

[Verse]
E                  F#m
E tu chegas-te tão perto
E                     F#m
Que te apertei no meu peito
G#m               Am
Já não era uma miragem
E     Dsus2      A
Era a sério eras tu (x3)

[Chorus]
Bm                F#m
Faz tanto tempo...tanto tempo
Bm                 A           G
Faz tanto tempo, e eu não esqueci

E     Dsus2      A
Era a sério eras tu (Era a sério eras tu) (x3)
E     Dsus2      A   Am E
Era a sério eras tu...
00:00 / 00:00
Outros vídeos desta música
Repetir
Outros vídeos desta música
96 exibições
    • ½ Tom
    • A
    • Bb
    • B
    • C
    • Db
    • D
    • Eb
    • E
    • F
    • F#
    • G
    • Ab
  • Adicionar à lista

Afinação da cifra

Afinador online

    0 comentários

    Ver todos os comentários

    Entre para o Cifra Club PRO

    Tenha acesso a benefícios exclusivos no App e no Site

    • Chega de anúncios

    • Mais recursos no app do Afinador

    • Atendimento Prioritário

    • Aumente seu limite de lista

    • Ajude a produzir mais conteúdo

    00:00 / 00:00

    Cifra Club Pro

    Aproveite o Cifra Club com benefícios exclusivos e sem anúncios
    Cifra Club Pro
    Aproveite o Cifra Club com benefícios exclusivos e sem anúncios
    OK