Cifra Club

King

XXXTENTACION

Cifra: Principal (violão e guitarra)
Selo Cifra Club: esta cifra foi revisada para atender aos critérios oficiais da nossa Equipe de Qualidade.
tom: C
[Intro] C  G  Em

E|----------------------------------------------|
B|-----0---0-------0---0------------------------|
G|-------0-----------0-----------0--0-------0--0|
D|---2----------2--------------4--4-------4--4--|
A|-3----------3--------------2----------2-------|
E|-------------------------3----------3---------|

Leave me alone, I
Wanna go home, it's
All in my head, I won't be upset if
Leave me alone, I
Wanna go home, it's
All in my head, I won't be upset if
Heartbroken, misspoken, breaking anything I touch
I'm not in love, I won't let you control what I want
Hate me, won't break me, I'm killing everyone I love
Hate me won't break me, I'm killing everyone I love

F7M                 G6/E
Hey, you, hey, you, you, what, hey, you
F7M                  E
Hey, you, you, what, you, you, you

         C                       G        Em
E|----------------------------------------------|
B|-----0---0-------0---0-------0---0------0---0-|
G|-------0-----------0-----------0----------0---|
D|---2----------2------------0----------0-------|
A|-3----------3-----------------------2---------|
E|-------------------------3--------------------|

Hate me, won't break me, I'm killing everyone I love
Hate me, won't break me, I'm killing everyone I love
00:00 / 00:00
Outros vídeos desta música
Repetir
Outros vídeos desta música
8.736 exibições
    • ½ Tom
    • A
    • Bb
    • B
    • C
    • Db
    • D
    • Eb
    • E
    • F
    • F#
    • G
    • Ab
  • Adicionar à lista

Afinação da cifra

Afinador online

    0 comentários

    Ver todos os comentários

    Entre para o Cifra Club PRO

    Tenha acesso a benefícios exclusivos no App e no Site

    • Chega de anúncios

    • Mais recursos no app do Afinador

    • Atendimento Prioritário

    • Aumente seu limite de lista

    • Ajude a produzir mais conteúdo

    00:00 / 00:00

    Cifra Club Pro

    Aproveite o Cifra Club com benefícios exclusivos e sem anúncios
    Cifra Club Pro
    Aproveite o Cifra Club com benefícios exclusivos e sem anúncios
    OK