Cifra Club

Deserto

YAHWEH

Cifra: Principal (violão e guitarra)
tom: F
Introdução

E|--------8--5--|--12/13--12----------|--5--8-----|--12/13--12-----8--8/10--|--
B|--5--6--------|-------------13------|--------8--|-------------5-----------|--
G|--------------|-----------------12--|-----------|-------------------------|--
D|--------------|---------------------|-----------|-------------------------|--
A|--------------|---------------------|-----------|-------------------------|--
E|--------------|---------------------|-----------|-------------------------|--

Dedilhados de início

     Dm                            F
E|--------------5--------5-----|--------------5--------5-----|--
B|-----------------6--------6--|-----------------6--------6--|--
G|--------7-----------7--------|--------5-----------5--------|--
D|-----7-----7-----------------|-----7-----7-----------------|--
A|--5--------------------------|--8--------------------------|--
E|-----------------------------|-----------------------------|--

     C                             Dm
E|--------------5--------5-----|--------------5--------5-----|--
B|--------7--------7--------7--|-----------------6--------6--|--
G|-----5-----5--------5--------|--------7-----------7--------|--
D|--5--------------------------|-----7-----7-----------------|--
A|-----------------------------|--5--------------------------|--
E|-----------------------------|-----------------------------|--

Mas foi no deserto que...

     G 2x           D 2x           G  2x          Bb             C
E|--------------------------------------------------------------------------------
B|--------------------------------------------------------------------------------
G|-----------------7-----------7-----------------3-----------3--5--5--5--5--5--5--
D|--5-----------5--7-----------7--5-----------5--3-----------3--5--5--5--5--5--5--
A|--5-----------5--5--5--5--5--5--5-----------5--1--1--1--1--1--3--3--3--3--3--3--
E|--3--3--3--3--3-----------------3--3--3--3--3-----------------------------------

Refrão

     D 2x           G 2x           Bb             C              D *
E|--------------------------------------------------------------------------------
B|--------------------------------------------------------------------------------
G|--7-----------7-----------------3-----------3--5-----------5--7--------7--7--7--
D|--7-----------7--5-----------5--3-----------3--5-----------5--7--------7--7--7--
A|--5--5--5--5--5--5-----------5--1--1--1--1--1--3--3--3--3--3--5--5--5--5--5--5--
E|-----------------3--3--3--3--3--------------------------------------------------

Essa parte só entra no final do refrão. Na primeira parte do refrão ele faz a virada abaixo no lugar do D.

Virada

E|-----------------------------------------------------
B|-----------------------------------------------------
G|-----------------------------------------------------
D|-----------------------------------------------------
A|--5--8--7--3--------3--5--8--7--5--3--------3-----5--
E|--------------3--5--------------------3--5-----5-----

Solo

E|----------------------------------------|--------------------------------------------------------------------
B|--18b----------6-----6--------8--11b----|--10--11--10--------------------------------------------------------
G|--17b--t21r-7-----7-----7/10------------|--------------7--9--10--9--7----------------------------------------
D|----------------------------------------|------------------------------10--8--7--8--7------------------------
A|----------------------------------------|----------------------------------------------10--7--5--7--5--------
E|----------------------------------------|--------------------------------------------------------------------

E|-------------------------------------------|--
B|-------------------------------------------|--
G|--7--9--10--9--7/12--7/14--7/17b----17b----|--
D|-------------------------------------------|--
A|-------------------------------------------|--
E|-------------------------------------------|--

E|-------------------------------------------------------------------------------------------------
B|-------------------------------------------------------------------------------13-15-13----------
G|--------------------7-9-10---------9-10-12----------10-12-14----------12-14-15----------14-13-14-
D|-------------7-9-10--------9-10-12---------10-12-14----------12-14-15----------------------------
A|-------5-7-8-------------------------------------------------------------------------------------
E|-5-7-8-------------------------------------------------------------------------------------------
00:00 / 00:00
Outros vídeos desta música
Repetir
Outros vídeos desta música
Composição de Yahweh
Colaboração e revisão:
  • Marco Aurélio
1.312 exibições
    • ½ Tom
    • A
    • Bb
    • B
    • C
    • Db
    • D
    • Eb
    • E
    • F
    • F#
    • G
    • Ab
  • Adicionar à lista

    0 comentários

    Ver todos os comentários

    Conseguiu tocar?

    0 Tocaram 0 Ainda não

    Grave um vídeo tocando Deserto e nos envie!

    Entre para oCifra Club PRO

    Tenha acesso a benefícios exclusivos no App e no Site

    • Chega de anúncios

    • Prioridade de compra em lançamentos

    • Mais recursos no app do Afinador

    • Atendimento Prioritário

    • Descontos nos produtos Cifra Club

    • Ajude a produzir mais conteúdo

    00:00 / 00:00

    Cifra Club Pro

    Aproveite o Cifra Club com benefícios exclusivos e sem anúncios
    Cifra Club Pro
    Aproveite o Cifra Club com benefícios exclusivos e sem anúncios
    OK