Cifra Club

For Your Love

The Yardbirds

Cifra: Principal (violão e guitarra)
tom: G
Intro:

Em    G     A     Am

Em    G     A     Am
                        (For your love)
Em    G     A     Am
                        (For your love)
Em    G     A     Am
                        (For your love)

Em            G              A                Am
I'll give you everything and more, that's for sure   (For your love)
Em             G                 A                    Am
I'll bring you diamond rings and things right to your door   (For your love)
Em            G            A             Am
To thrill you every night, I'll give you diamonds bright  
Em                      G                A                 Am
There'll be things that will excite,  to make you dream of me at night.
         Em       G       A       Am
For your looooooooooooooooooooooooove
         Em       G       A       Am
For your looooooooooooooooooooooooove
         Em       G       A       Am      Em
For your looooooooooooooooooooooooove

Bridge:
 
Riff que a guitarra faz nessa parte:
Não tenho certeza se a parte do E está certa, mas eu toco assim: 
     B                   B                   A
E|---------------------------------------------------------------
B|---------------------------------------------------------------
G|---------------------------------------------------------------
D|-----------------6-------------------6------------------4------
A|-------6-6--9-9-----9-------6-6--9-9---9-------4-4--7-7---7----
E|---7-7-----------------7-7-----------------5-5-----------------
     E 
E|--------------------|   
B|--------------------|
G|--------------------|
D|--------------------|
A|-------2-2-4-4-5-4--|
E|---0-0--------------|
     B                   B                   A                  A7 Em
E|--------------------------------------------------------------0--0--|
B|--------------------------------------------------------------2--0--|
G|--------------------------------------------------------------0--0--|
D|-----------------6-------------------6------------------4-----2--2--|
A|-------6-6--9-9-----9-------6-6--9-9---9-------4-4--7-7---7---0--2--|
E|---7-7-----------------7-7-----------------5-5-------------------0--|

     B                            A               E
For your love, for your love, I would give the stars above
         B                            A              A7      
For your love, for your love, I would give you all I could
Em     G      A      Am

Em     G      A      Am
                          (For your love)
Em     G      A      Am
                          (For your love)
Em     G      A      Am
                          (For your love)

Em           G          A            Am
I'd give the moon if it were mine to give   (For your love)
Em           G             A         Am
I'd give the stars and the sun for I live   (For your love)
Em            G            A             Am
To thrill you every night, I'll give you diamonds bright  
Em                      G                A                 Am
There'll be things that will excite,  to make you dream of me at night.
         Em       G       A       Am
For your looooooooooooooooooooooooove
         Em       G       A       Am
For your looooooooooooooooooooooooove
         Em       G       A       Am
For your looooooooooooooooooooooooove
         Em       G       A       Am      Em
For your looooooooooooooooooooooooooooooooove
Composição de Graham Gouldman
Colaboração e revisão:
  • Guilherme
7.188 exibições
    • ½ Tom
    • A
    • Bb
    • B
    • C
    • Db
    • D
    • Eb
    • E
    • F
    • F#
    • G
    • Ab
  • Adicionar à lista

    0 comentários

    Ver todos os comentários

    Conseguiu tocar?

    5 Tocaram 0 Ainda não

    Grave um vídeo tocando For Your Love e nos envie!

    00:00 / 00:00
    Outros vídeos desta música
    Repetir Qualidade Automático
    Outros vídeos desta música
    00:00 / 00:00
    Automático

    Cifra Club Pro

    Aproveite o Cifra Club com benefícios exclusivos e sem anúncios
    Cifra Club Pro
    Aproveite o Cifra Club com benefícios exclusivos e sem anúncios
    OK