Cifra Club

Aprenda

Border

Years & Years

Cifra: Principal (violão e guitarra)
Tom: C
Intro 2x: 

E|--3-3-3-3-3---------------0------3-3-3-3-3----------------0|
B|--------------3-3-3-3-3---------------------3-3-3-3-3---1--|
G|-----------------------------------------------------------|
D|-----------------------------------------------------------|
A|-----------------------------------------------------------|
E|-----------------------------------------------------------|

C                                  Am
 Studying your moves, I wanna play,   it's all so easy
F                                 Em
 When you're the one who loves the pain
C
 Do I remember what I was taught?
Am
  Am I gonna catch you?
F                                 Em
 Is it bright enough to see all we are?

C (abafado)
 I'll bring you another rush

C     G          Am              F
Oh oh oh, who we are and what we do
C     G            Am                F
Oh oh oh, makes me want it, makes me move
C     G           Am          F
Oh oh oh, could I be the warrior?
C     G          Am               F
Oh oh oh, do you feel it, does it hurt?

Am                     F
  I'm going to the border 
                      C
My body will be stronger
                            G
My heart it will start to shine
                   Am
And I will be alright

Am                     F
  I'm going to the border 
                      C
My body will be stronger
                            G
My heart it will start to shine
                   Am
And I will be alright

E|--3-3-3-3-3---------------0------3-3-3-3-3----------------0|
B|--------------3-3-3-3-3---------------------3-3-3-3-3---1--|
G|-----------------------------------------------------------|
D|-----------------------------------------------------------|
A|-----------------------------------------------------------|
E|-----------------------------------------------------------|

C                                              Am
 She'll fool your heart, tell me whose to blame, are you feeling guilty?
F                                    Em
 Cause every corner is filled with shame
C                              Am
 Do you require me, to let you know you made it through
F                                        Em
 And it's getting lighter, you won't get lost, you'll never lose

C     G          Am              F
Oh oh oh, who we are and what we do
C     G            Am                F
Oh oh oh, makes me want it, makes me move
C     G           Am          F
Oh oh oh, could I be the warrior?
C     G          Am               F
Oh oh oh, do you feel it, does it hurt?

Am                     F
  I'm going to the border 
                      C
My body will be stronger
                            G
My heart it will start to shine
                   Am
And I will be alright

Am                     F
  I'm going to the border 
                      C
My body will be stronger
                            G
My heart it will start to shine
                   Am
And I will be alright

E|--------0------------------0-------------------------------|
B|10-8-10---10-8-----10-8-10---10-8-----10-8-10--------------|
G|----------------------------------------------7---7-9-7-5--|
D|----------------------------------------------------------7|
A|-----------------------------------------------------------|
E|-----------------------------------------------------------|

E|--------0------------------0-------------------------------|
B|10-8-10---10-8-----10-8-10---10-8-----10-8-10--------------|
G|----------------------------------------------7---7-9-7-5-9|
D|-----------------------------------------------------------|
A|-----------------------------------------------------------|
E|-----------------------------------------------------------|

Am                     F
  I'm going to the border 
                      C
My body will be stronger
                            G
My heart it will start to shine
                   Am
And I will be alright

Am                     F
  I'm going to the border
                      C
My body will be stronger
                            G
My heart it will start to shine
                   Am
And I will be alright
Colaboração e revisão:
  • Petra Rosal
191 exibições
    • ½ Tom
    • A
    • Bb
    • B
    • C
    • Db
    • D
    • Eb
    • E
    • F
    • F#
    • G
    • Ab
  • Adicionar à lista

    0 comentários

    Mostrar mais comentários

    Conseguiu tocar?

    0 Tocaram 0 Ainda não

    Grave um vídeo tocando Border e mande pra gente!

    00:00 / 00:00
    outros vídeos desta música
    repetir qualidade Automático
    Outros vídeos desta música
    00:00 / 00:00
    Automático

    Cifra Club Pro

    Aproveite o Cifra Club com benefícios exclusivos e sem anúncios
    7 dias grátis
    Cifra Club Pro
    Aproveite o Cifra Club com benefícios exclusivos e sem anúncios
    7 dias grátis
    OK