Cifra Club

River Flows In You

Yiruma

Cifra: Principal
exibições 32.859
Tom: E
E|------------------4--|--5-------4--5--------4----|--5---------5----------|
B|---------------5-----|---------------------------|--5---------5----3~----|
G|---------------------|-------6-----------6-------|-------6---------------|
D|---------------------|--4-------------4----------|--0--------------------|
A|---------------------|---------------------------|-----------------------|
E|---------------------|---------------------------|-----------------------|

|------------------4--|--5-------4--5--------4----|--5---------5------------|
|--L------------5-----|---------------------------|--5------5---------3~----|
|---------------------|-------6-----------6-------|------6------------------|
|---------------------|--4-------------4----------|--0----------------------|
|---------------------|---------------------------|-------------------------|
|---------------------|---------------------------|-------------------------|

|------------------4--|--5-------4--5--------4----|--5---------5---------------|
|--L------------5-----|---------------------------|--5------5-----5-----5s--3--|
|---------------------|-------6-----------6-------|------6-----------6---------|
|---------------------|--4-------------4----------|--0-------------------------|
|---------------------|---------------------------|----------------------------|
|---------------------|---------------------------|----------------------------|

|------------------------|-------------------------|-----------------------|
|--2----3----3g5----2----|--0----------------------|-----------------------|
|------------------------|-------1-----1-----------|--2--------------2--4--|
|------------------------|----------2-----2--------|------------4----------|
|--0---------------------|-------------------2-----|-------4---------------|
|------------------------|--0-------------------0--|--2--------------------|

|------------2------------|-----------------------|--------------------|
|--2---------2-----2h--3--|--5---------5----3--2--|--0-----------------|
|-------2-------2---------|-----------------------|--------------------|
|--0----------------------|-------7---------------|--------------------|
|-------------------------|-----------------------|--------------------|
|-------------------------|--5--------------------|--0--------x--------|

|--5-------4--5--------4----|--5---------5---------------|
|---------------------------|--5------5-----5-----5s--3--|
|-------6-----------6-------|------6-----------6---------|
|--4-------------4----------|--0-------------------------|
|---------------------------|----------------------------|
|---------------------------|----------------------------|

|-------------------9----|--7--------7h-9p-7--5--4--|--5---------5-----------|
|--2----3----3g5---------|--------------------------|------------5-----------|
|------------------------|--------------------------|-------6----------2--4--|
|------------------------|--------------------------|--4---------------------|
|--0---------------------|--------------------------|------------------------|
|------------------------|--0-----------------------|------------------------|

|------------2---------|-----------------------|------------------------------|
|--2-------------------|--5---------5----3--2--|--0--------10--10h-12p-10--9--|
|-------2---------2----|-----------------------|------------------------------|
|--0-------------------|-------7---------------|------------------------------|
|----------------------|-----------------------|------------------------------|
|----------------------|--5--------------------|--0---------------------------|

|--------------------------------------|----------9------10--9----------|
|---10----------10--10--10h-12p-10--9--|--10---------10---------12--10--|
|*----------11-------------------------|------11------------------------|
|*------11-----------------------------|---0----------------------------|
|----9---------------------------------|--------------------------------|
|--------------------------------------|--------------------------------|

|----------9--10--12--10--9------|----------------------------------||
|--10--12--------------------12--|--9-----------10--10h-12p-10--9---||
|--------------------------------|-----9-----9---------------------*||
|--------------------------------|--------9------------------------*||
|---0--------------0-------------|----------------------------------||
|--------------------------------|--0-------------------------------||

|--------------------------|-------------------4--|--5-------4--5--------4----|
|--9-----------9-----9-----|--9-------------5-----|--5------------------------|
|-----9-----9--9-----9-----|--9-------------------|-------6-----------6-------|
|--------9--------9-----9--|----------------------|--4-------------4----------|
|--------------------------|----------------------|---------------------------|
|--0-----------------------|----------------------|---------------------------|

|--5---------5---------------|------------------------|-------------------------|
|--5------5-----5-----5s--3--|--2----3----3g5----2----|--0----------------------|
|------6-----------6---------|------------------------|-------1-----1-----------|
|--0-------------------------|------------------------|----------2-----2--------|
|----------------------------|--0---------------------|-------------------2-----|
|----------------------------|------------------------|--0-------------------0--|

|-----------------------|------------2------------|-----------------------|
|-----------------------|--2---------2-----2h--3--|--5---------5----3--2--|
|--2--------------2--4--|-------2-------2---------|-----------------------|
|------------4----------|--0----------------------|-------7---------------|
|-------4---------------|-------------------------|-----------------------|
|--2--------------------|-------------------------|--5--------------------|

|--------------------|--5-------4--5--------4----|--5---------5---------------|
|--0-----------------|--5------------------------|--5------5-----5-----5s--3--|
|--------------------|-------6-----------6-------|------6-----------6---------|
|--------------------|--4-------------4----------|--0-------------------------|
|--------------------|---------------------------|----------------------------|
|--0--------x--------|---------------------------|----------------------------|

|-------------------9----|--7--------7h-9p-7--5--4--|--5---------5-----------|
|--2----3----3g5---------|--------------------------|------------5-----------|
|------------------------|--------------------------|-------6----------2--4--|
|------------------------|--------------------------|--4---------------------|
|--0---------------------|--------------------------|------------------------|
|------------------------|--0-----------------------|------------------------|

|------------2---------|-----------------------|------------------------------|
|--2-------------------|--5---------5----3--2--|--0--------10--10h-12p-10--9--|
|-------2---------2----|-----------------------|------------------------------|
|--0-------------------|-------7---------------|------------------------------|
|----------------------|-----------------------|------------------------------|
|----------------------|--5--------------------|--0---------------------------|

|--------------------------------------|----------9------10--9----------|
|---10----------10--10--10h-12p-10--9--|--10---------10---------12--10--|
|*----------11-------------------------|------11------------------------|
|*------11-----------------------------|---0----------------------------|
|----9---------------------------------|--------------------------------|
|--------------------------------------|--------------------------------|

|----------9--10--12--10--9------|----------------------------------||
|--10--12--------------------12--|--9-----------10--10h-12p-10--9---||
|--------------------------------|-----9-----9---------------------*||
|--------------------------------|--------9------------------------*||
|---0--------------0-------------|----------------------------------||
|--------------------------------|--0-------------------------------||

|--------------------------|-------------------4--|--5-------4--5--------4----|
|--9-----------9-----9-----|--9-------------5-----|---------------------------|
|-----9-----9--9-----9-----|--9-------------------|-------6-----------6-------|
|--------9--------9-----9--|----------------------|--4-------------4----------|
|--------------------------|----------------------|---------------------------|
|--0-----------------------|----------------------|---------------------------|

|--5---------5---------------|------------------------|-------------------------|
|--5------5-----5-----5s--3--|--2----3----3g5----2----|--0----------------------|
|------6-----------6---------|------------------------|-------1-----1-----------|
|--0-------------------------|------------------------|----------2-----2--------|
|----------------------------|--0---------------------|-------------------2-----|
|----------------------------|------------------------|--0-------------------0--|

|-----------------------|------------2------------|-----------------------|
|-----------------------|--2---------2-----2h--3--|--5---------5----3--2--|
|--2--------------2--4--|-------2-------2---------|-----------------------|
|------------4----------|--0----------------------|-------7---------------|
|-------4---------------|-------------------------|-----------------------|
|--2--------------------|-------------------------|--5--------------------|

|--------------------|--5-------4--5--------4----|--5---------5---------------|
|--0-----------------|---------------------------|--5------5-----5-----5s--3--|
|--------------------|-------6-----------6-------|------6-----------6---------|
|--------------------|--4-------------4----------|--0-------------------------|
|--------------------|---------------------------|----------------------------|
|--0--------x--------|---------------------------|----------------------------|

|-------------------9----|--7--------7h-9p-7--------|-----------------------|
|--2----3----3g5---------|--------------------0-----|-----------------------|
|------------------------|-----------------------1--|--2--------------2--4--|
|------------------------|--------------------------|------------4----------|
|--0---------------------|--------------------------|-------4---------------|
|------------------------|--0-----------------------|--2--------------------|

|------------2------------|-----------------------|-------------------|
|--2---------2-----2h--3--|--5---------5----3--2--|--0----------------|
|-------2-------2---------|-----------------------|-------------------|
|--0----------------------|-------7---------------|-------------------|
|-------------------------|-----------------------|-------------------|
|-------------------------|--5--------------------|--0----------------|

|----------------------|-------2------------||
|----------------------|--2-----------------||
|--2--------------2----|--------------------||
|--4---------4---------|--------------------||
|-------4--------------|--------------------||
|--2-------------------|--------------------||
Acordes para:
    Composição: DrumervaraColaboração e revisão:
    • Vinicius
    • ermine

    0 comentários

      mostrar mais comentários

      Conseguiu tocar?

      1tocaram4ainda não

      Grave um vídeo tocando River Flows In You e mande pra gente!

      00:00 / 00:00
      outros vídeos desta música
      repetirqualidadeautomática
      Outro vídeos desta música
        00:00 / 00:00
        automática
        OK