Cifra Club

Waterfall

Yoñlu

Cifra: Principal (violão e guitarra)
Selo Cifra Club: esta cifra foi revisada para atender aos critérios oficiais da nossa Equipe de Qualidade.
tom: D
               D
E|-5---------5---------5----------|
B|------3--------3---------3----3-|
G|----2---2----2---2-----2---2----|
D|-0---------0---------0----------|
A|--------------------------------|
E|--------------------------------|

               D4
E|-3---------3---------3----------|
B|------3--------3---------3----3-|
G|----2---2----2---2-----2---2----|
D|-0---------0---------0----------|
A|--------------------------------|
E|--------------------------------|

               Gm/D
E|-3---------3---------3----------|
B|------3--------3---------3----3-|
G|----3---3----3---3-----3---3----|
D|-0---------0---------0----------|
A|--------------------------------|
E|--------------------------------|

               D
E|-2---------2---------2----------|
B|------3--------3---------3----3-|
G|----2---2----2---2-----2---2----|
D|-0---------0---------0----------|
A|--------------------------------|
E|--------------------------------|

               F#m/D
E|-2---------2---------2----------|
B|------2--------2---------2----2-|
G|----2---2----2---2-----2---2----|
D|-0---------0---------0----------|
A|--------------------------------|
E|--------------------------------|

               Am/D
E|-0---------0---------0----------|
B|------1--------1---------1----1-|
G|----2---2----2---2-----2---2----|
D|-0---------0---------0----------|
A|--------------------------------|
E|--------------------------------|

               Gm/D
E|-3---------3---------3----------|
B|------3--------3---------3----3-|
G|----0---0----0---0-----0---0----|
D|-0---------0---------0----------|
A|--------------------------------|
E|--------------------------------|

               D
E|-2---------2---------2----------|
B|------3--------3---------3----3-|
G|----2---2----2---2-----2---2----|
D|-0---------0---------0----------|
A|--------------------------------|
E|--------------------------------|

               D
E|-5---------5---------5----------|
B|------3--------3---------3----3-|
G|----2---2----2---2-----2---2----|
D|-0---------0---------0----------|
A|--------------------------------|
E|--------------------------------|

               D4
E|-3---------3---------3----------|
B|------3--------3---------3----3-|
G|----2---2----2---2-----2---2----|
D|-0---------0---------0----------|
A|--------------------------------|
E|--------------------------------|

               Gm/D
E|-3---------3---------3----------|
B|------3--------3---------3----3-|
G|----3---3----3---3-----3---3----|
D|-0---------0---------0----------|
A|--------------------------------|
E|--------------------------------|

               D
E|-2---------2---------2----------|
B|------3--------3---------3----3-|
G|----2---2----2---2-----2---2----|
D|-0---------0---------0----------|
A|--------------------------------|
E|--------------------------------|

               F#m/D
E|-2---------2---------2----------|
B|------2--------2---------2----2-|
G|----2---2----2---2-----2---2----|
D|-0---------0---------0----------|
A|--------------------------------|
E|--------------------------------|

               Am/D
E|-0---------0---------0----------|
B|------1--------1---------1----1-|
G|----2---2----2---2-----2---2----|
D|-0---------0---------0----------|
A|--------------------------------|
E|--------------------------------|

               Gm/D
E|-3---------3---------3----------|
B|------3--------3---------3----3-|
G|----0---0----0---0-----0---0----|
D|-0---------0---------0----------|
A|--------------------------------|
E|--------------------------------|

               D
E|-2---------2---------2----------|
B|------3--------3---------3----3-|
G|----2---2----2---2-----2---2----|
D|-0---------0---------0----------|
A|--------------------------------|
E|--------------------------------|

               Em7
E|-0---------0---------0----------|
B|------3--------3---------3----3-|
G|----0---0----0---0-----0---0----|
D|-2---------2---------2----------|
A|--------------------------------|
E|--------------------------------|

               D
E|-2---------2---------2----------|
B|------3--------3---------3----3-|
G|----2---2----2---2-----2---2----|
D|-0---------0---------0----------|
A|--------------------------------|
E|--------------------------------|

               Em7
E|-0---------0---------0----------|
B|------3--------3---------3----3-|
G|----0---0----0---0-----0---0----|
D|-2---------2---------2----------|
A|--------------------------------|
E|--------------------------------|

               D
E|-2---------2---------2----------|
B|------3--------3---------3----3-|
G|----2---2----2---2-----2---2----|
D|-0---------0---------0----------|
A|--------------------------------|
E|--------------------------------|

               D
E|-2---------2---------2----------|
B|------3--------3---------3----3-|
G|----2---2----2---2-----2---2----|
D|-0---------0---------0----------|
A|--------------------------------|
E|--------------------------------|
Outros vídeos desta música
4.763 exibições
    • ½ Tom
    • A
    • Bb
    • B
    • C
    • Db
    • D
    • Eb
    • E
    • F
    • F#
    • G
    • Ab
  • Adicionar à lista

Afinação da cifra

Afinador online

    0 comentários

    Ver todos os comentários

    Entre para o Cifra Club PRO

    Tenha acesso a benefícios exclusivos no App e no Site

    • Chega de anúncios

    • Mais recursos no app do Afinador

    • Atendimento Prioritário

    • Aumente seu limite de lista

    • Ajude a produzir mais conteúdo

    Cifra Club Pro

    Aproveite o Cifra Club com benefícios exclusivos e sem anúncios
    Cifra Club Pro
    Aproveite o Cifra Club com benefícios exclusivos e sem anúncios
    OK