Cifra Club

Blown Away

Youth Brigade

Cifra: Principal (violão e guitarra)
Selo Cifra Club: esta cifra foi revisada para atender aos critérios oficiais da nossa Equipe de Qualidade.
tom: Em
INTRO/VERSE:
E|--------------------------------------------------|
B|--------------------------------------------------|
G|--------------------------------------------------|
D|-7-777777-9-999999-10--10-10-10-10-10-10-9-999999-|
A|-7-777777-9-999999-10--10-10-10-10-10-10-9-999999-|
E|-5-555555-7-777777-8---8--8--8--8--8--8--7-777777-| [x8]

CHORUS:
E|------------------------------------------------------|----------|
B|------------------------------------------------------|----------|
G|-9-999999-12--12-12-12-12-12-12-14--14-14-14-14-14-14-|-15-14-12-|
D|-9-999999-12--12-12-12-12-12-12-14--14-14-14-14-14-14-|-15-14-12-|
A|-7-777777-10--10-10-10-10-10-10-12--12-12-12-12-12-12-|-13-12-10-|
E|------------------------------------------------------|----------| [x4]

Repeat VERSE [x6]
Repeat CHORUS [x4]
Repeat VERSE [x6]
Repeat CHORUS [x4]

BRIDGE/BASS G  O:                            [x2]
E|------------------|-------------------|-------------|
B|------------------|-------------------|-------------|
G|------------------|-------------------|-------------|
D|-7---9---10---9---|-7---9---10---12---|-7--9--10--9-|
A|-7---9---10---9---|-7---9---10---12---|-7--9--10--9-|
E|-5---7---8----7---|-5---7---8----10---|-5--7--8---7-|

E|-----------------------------------|
B|-----------------------------------|
G|-----------------------------------|
D|---2---2---2-4-2----5---5---2-4-2--| first time palm muted
A|-0---0---2--------3---3---2--------| [x2]  second time not so much
E|-----------------------------------|

Repeat VERSE [x4]
Repeat CHORUS [x4]

END CHORDS (continued from chorus):
E|---------------------|
B|---------------------|
G|-15-14-12--15-14-12--|
D|-15-14-12--15-14-12--|
A|-13-12-10--13-12-10--|
E|---------------------|
Outros vídeos desta música
    22 exibições
      • ½ Tom
      • Am
      • Bbm
      • Bm
      • Cm
      • C#m
      • Dm
      • Ebm
      • Em
      • Fm
      • F#m
      • Gm
      • G#m
    • Adicionar à lista

    Afinação da cifra

    Afinador online

      0 comentários

      Ver todos os comentários

      Entre para o Cifra Club PRO

      Tenha acesso a benefícios exclusivos no App e no Site

      • Chega de anúncios

      • Badges exclusivas

      • Mais recursos no app do Afinador

      • Atendimento Prioritário

      • Aumente seu limite de lista

      • Ajude a produzir mais conteúdo

      Cifra Club Pro

      Aproveite o Cifra Club com benefícios exclusivos e sem anúncios
      Cifra Club Pro
      Aproveite o Cifra Club com benefícios exclusivos e sem anúncios
      Ops (: Contenido disponible sólo en portugués.
      OK