Cifra Club

Aprenda

Again

Yui

Cifra: Principal (violão e guitarra)
Tom: Em
[Intro] D9
        Em  D  C  B7
        Em  D  C  B7

[Riff] 

   D9
E|-0-----0------0-----0---------------------|
B|---3-----3------3-----3-------------------|
G|-----2-----2------2-----2-----------------|
D|------------------------------------------|
A|------------------------------------------|
E|------------------------------------------|

[Solo]

E|------------------------------------------|
B|------8-7----------8-7-8/10-8-7-----------|
G|----7-----7~-----7--------------8~--------|
D|-/9-----------/9--------------------------|
A|------------------------------------------|
E|------------------------------------------|

E|------------------------------------------|
B|------8-7----------8-7--------------------|
G|----7-----7~-----7-----8h9p8h9p8h9p8h9p8--|
D|-/9-----------/9--------------------------|
A|------------------------------------------|
E|------------------------------------------|

[Primeira Parte]

Em           D        C
   Yume no tsuzuki oikaketeita hazu nano ni
Em        D          C
   Magarikunetta hosoi michi hito ni tsumazuku
Em                           D                     
   Ano koro ni mitai ni tte modoritai wake janai no 
 C
Nakushitekita sora wo sagashiteru
Em                         D                      
   Wakattekuremasu you ni gisei ni natta you na 
 C
Kanashii kao wa yamete yo

[Pré-Refrão]

Em
   Tsumi no saigo wa namida janai yo

Zutto kurushiku seotte kun da

Deguchi mienai kanjou meiru ni
 C       D
Dare wo matteru no
Em
   Shiroi NOOTO ni tsuzutta you ni

Motto sunao ni hakidashitai yo

Nani kara nogaretainda
 C     D
Genjitsu tte yatsu

[Refrão]

   C                D
Kanaeru tame ni ikiterun datte
     Em           A          B
Wasurechaisou na yoru no mannaka
   C               D           Em
Bunan ni nante yatterarenai kara
    A        B
Kaeru basho mo nai no
   C               D
Kono omoi wo keshite shimau ni wa
      Em                  A        B
Mada jinsei nagai deshou (I'm on the way)
      C
Natsukashikunaru
 D
Konna itami mo kangei jan

( Em )

[Segunda Parte]

Em       D          C
   Ayamaranakucha ikenai yo ne aa gomen ne
Em        D            C
   Umaku ienakute shinpai kaketa mama datta ne
Em                      D
   Ano hi kakaeta zenbu ashita kakaeru zenbu
 C
Junban tsuketari wa shinai kara
Em                         D
   Wakattekuremasu you ni sotto me wo tojitanda
 C
Mitakunai mono made miendamon

[Pré-Refrão]

Em
   Iranai uwasa ni chotto

Hajimete kiku hatsugen docchi

Mukaiattara tomodachi datte
C       D
Uso wa yamete ne
Em
   Fukai HAATO ga iradatsu you ni

Karadan naka moeteirun da

Hontou wa kitai shiten no
 C     D
Genjitsu tte yatsu

[Refrão]

   C                D
Kanaeru tame ni ikiterun datte
     Em                A     B
Sakebitaku naru yo kikoete imasu ka
   C               D           Em
Bunan ni nante yatterarenai kara
    A        B
Kaeru basho mo nai no
   C                    D
Yasashisa ni wa itsumo kansha shiteru
         Em             A        B
Dakara tsuyoku naritai (I'm on the way)
   C
Susumu tame ni
 D
Teki mo mikata mo kangei jan

[Ponte]

 F           G          Am
Douyatte tsugi no DOA akerun dakke kangaeteru
 F     G            Am
Mou hikikaesenai monogatari hajimatterun da
 F            D
Me wo samase me wo samase

( Eb  F  Gm )
( Eb  F  D  D9  D )

[Refrão]

   C             D
Kono omoi wo keshite shimau ni wa
      Em                 A  B
Mada jinsei nagai deshou
     C                  D            Em
Yarinokoshiteru koto yarinaoshite mitai kara
 A       B
Mou ichido yukou

   C                D
Kanaeru tame ni ikiterun datte
     Em                A     B
Sakebitaku naru yo kikoete imasu ka
   C               D           Em
Bunan ni nante yatterarenai kara
    A        B
Kaeru basho mo nai no
   C                    D
Yasashisa ni wa itsumo kansha shiteru
         Em             A        B
Dakara tsuyoku naritai (I'm on the way)
      C
Natsukashikunaru
 D
Konna itami mo kangei jan

[Final] Em  D  C  B7
        Em  D  C  B7  Em

E|------------------------------------------|
B|------8-7----------8-7-8/10-8-7-----------|
G|----7-----7~-----7--------------8~--------|
D|-/9-----------/9--------------------------|
A|------------------------------------------|
E|------------------------------------------|

E|------------------------------------------|
B|------8-7----------8-7--------------------|
G|----7-----7~-----7-----8h9p8h9p8h9p8h9p8--|
D|-/9-----------/9--------------------------|
A|------------------------------------------|
E|------------------------------------------|
79.961 exibições
    • ½ Tom
    • Am
    • Bbm
    • Bm
    • Cm
    • C#m
    • Dm
    • Ebm
    • Em
    • Fm
    • F#m
    • Gm
    • G#m
  • Adicionar à lista

    0 comentários

    Mostrar mais comentários

    Conseguiu tocar?

    43 Tocaram 3 Ainda não

    Grave um vídeo tocando Again e mande pra gente!

    00:00 / 00:00
    outros vídeos desta música
    repetir qualidade Automático
    Outros vídeos desta música
    00:00 / 00:00
    Automático

    Cifra Club Pro

    Aproveite o Cifra Club com benefícios exclusivos e sem anúncios
    7 dias grátis
    Cifra Club Pro
    Aproveite o Cifra Club com benefícios exclusivos e sem anúncios
    7 dias grátis
    OK