Cifra Club

Driving Happy Life

Yui

Cifra: Principal (violão e guitarra)
Selo Cifra Club: esta cifra foi revisada para atender aos critérios oficiais da nossa Equipe de Qualidade.
tom: A
(riff 0)
      A          B
E|---------------------------|
B|------5----------5--5------|
G|-1/2/4--4-2--2/4--4--------|

(riff 1)
      E        A        E       A
E|----------5-4--4--------------------------|
B|-5--7-5-7-----7-7---7--5-7----------------|
G|---------------------------4p6-4--2--4-2--|

(riff 2)
      E        A        B          A    B
E|----------5-4--4------------------------|
B|-5--7-5-7-----7-7----------7------------|
G|--------------------2/4-6-4-6--2-2--4-4-|

(intro) (riff 0) (riff 1) (Riff 2)

E           A      E          A
 Natsu no bouken yo  karita kuruma de
E           A   B        A B
 Shinken doraibu kibun saikou
E      A      E             A
 Mado aketara   omoidashita no
E        A           B        A            B
 Koto ji mo yagai fesu tanoshiku narisou da

B        C#m           A
 Hajimete no wangansen hashiru
B            C#m          A         B
 Kousoku no iriguchi de mayotteru baai ja nai

E          B         C#m          A
Happy Life ii desho? doko e datte ikeru n da
E          B
Happy Days sou desho?
  C#m            A           E  A
Umaku yukanai hi datte aru kedo
        E          A
Driving Happy Life

(riff 2)

E      A         E        A
 Gasorin sutando   sagashite iru
E      A          B         A            B
 Ano kumo no you ni fuwari ukandetai no ni

B         C#m          A
 I LOVED YESTERDAY kakenagara
B           C#m          A          B
 Saabisu eria ni yotte hitomazu kyuukei shiyou

E          B           C#m       A
Happy Life ii desho? kanashimu koto wa nai
E          B
Happy Days sou desho?
  C#m            A           E  A
Tsugi ni miete kuru mono wa nani?
        E          A
Driving Happy Life

A            D        E           F#m
 Genjitsu tte itsumo ikidomari ni kanjichau
       D                         A
Demo michi wa aru n da yo shiranai dake da yo
   Bm          E                F#
Chizu no nai tabi wa mada tsudzuku yo

(solo)
      B         C#m    A
E|--------------------3--3-3-----------------|
B|----------4--4-5---------------------------|
G|-4--4--4-6-6------2---------6b-6-4-2-------|
D|------------------------------------2-0----|
A|---------------------------------------2---|
E|-------------------------------------------|
      B         C#m     A      B  B4
E|----------------4--------------------------|
B|-4--4-7-7--5--7--------------5-------------|
G|---------------------6b-----4--------------|
D|-------------------7----7--4---------------|
A|-------------------------------------------|
E|-------------------------------------------|

E          B         C#m          A
Happy Life ii desho? doko e datte ikeru n da
E          B            C#m         A
Happy Days sou desho? unten ni mo narete kita

E          B           C#m       A
Happy Life ii desho? kanashimu koto wa nai
E          B
Happy Days sou desho?
  C#m            A           E  A
Tsugi ni miete kuru mono wa nani?
        E          A
Driving Happy Life
        E (riff 1 e riff 2) ( C#m )
Driving Happy... Life
Outros vídeos desta música
767 exibições
    • ½ Tom
    • A
    • Bb
    • B
    • C
    • Db
    • D
    • Eb
    • E
    • F
    • F#
    • G
    • Ab
  • Adicionar à lista

Afinação da cifra

Afinador online

    0 comentários

    Ver todos os comentários

    Entre para o Cifra Club PRO

    Tenha acesso a benefícios exclusivos no App e no Site

    • Chega de anúncios

    • Mais recursos no app do Afinador

    • Atendimento Prioritário

    • Aumente seu limite de lista

    • Ajude a produzir mais conteúdo

    Cifra Club Pro

    Aproveite o Cifra Club com benefícios exclusivos e sem anúncios
    Cifra Club Pro
    Aproveite o Cifra Club com benefícios exclusivos e sem anúncios
    OK