Cifra Club

Aprenda

It's All Too Much

Yui

Cifra: Principal (violão e guitarra)
Tom: F
(intro) Am G F F
        Am G F E

(together)
--------------------------------------------- ---------------------------------------------
--------------------------------------------- ---------------------------------------------
--------5--------4-----------2---5---5/7-5-4- --------5--------4-----------2---5---5/7-5-4-
-7--7-7---7--5-5---5--3--3-3---3---3--------- -7-7-7---7-5-5---5-3-3-3---3---3-------------
--------------------------------------------- ---------------------------------------------
--------------------------------------------- ---------------------------------------------

--------------------------------------------- ---------------------------------------------
--------------------------------------------- ---------------------------------------------
--------5--------4--------2--2/5-4----------- --------5--------4--------2--2/5-4-----------
-7--7-7---7--5-5---5--3-3-------------------- -7-7-7---7-5-5---5-3-3-----------------------
--------------------------------------------- ---------------------------------------------
--------------------------------------------- ---------------------------------------------

(verse)

Am                          C
Kobaruto iro ni kawaru yoru sa
Dm
Tsumetaku hikari hoshizora
G
Kotoba nara mou iranai kara

Am                       C
Namida ni kakureta shinjitsu wo
Dm
Tokiakasou suru yori
G
Konkyo mo nai uranai no hou ga mashi

Dm                 C
Akari no nakunatta benchi de
Dm
miagetara
             F
Risou bakari ukabu
      E
Nagareboshi deshita

Riff before of chorus:
---------------------------- ----------------------------
---------------------------- ----------------------------
-12h14p12---7h9p7----------- -12h14p12---7h9p7-----------
-12h14p12---7h9p7----------- -12h14p12---7h9p7-----------
---------------------------- ----------------------------
---------------------------- ----------------------------

(chorus)

Am
Nee! oshiete yo
 G          F            C
Aru ga mama ikite yukerunara
F              C         G
Ginga ni hirogaru kiseki atsumete
D
Nori koete mitai yo
Am    G
Datte karadan naka
F             C
Meguru kanjou ni
F             G
shihaisaretenda
           Am
Konnan jya dame sa
G
Nee sou deshou?

( Am G F F )
( Am G F E )

(together)
--------------------------------------------- ---------------------------------------------
--------------------------------------------- ---------------------------------------------
--------5--------4-----------2---5---5/7-5-4- --------5--------4-----------2---5---5/7-5-4-
-7--7-7---7--5-5---5--3--3-3---3---3--------- -7-7-7---7-5-5---5-3-3-3---3---3-------------
--------------------------------------------- ---------------------------------------------
--------------------------------------------- ---------------------------------------------

--------------------------------------------- ---------------------------------------------
--------------------------------------------- ---------------------------------------------
--------5--------4--------2--2/5-4----------- --------5--------4--------2--2/5-4-----------
-7--7-7---7--5-5---5--3-3-------------------- -7-7-7---7-5-5---5-3-3-----------------------
--------------------------------------------- ---------------------------------------------
--------------------------------------------- ---------------------------------------------

(verse)

Am                    C
Saikoro furu mitai ni kimete
Dm
Koukai nante dekinai hodo
G
Tsugi no basho he to susunde itai

Am                   C
Aimai ni tsukurareta ruuru bukku
Dm
Okubyou na bun dake deokurete
G
Raibaru no senaka mitsudzuketanda

Dm
Sonna no mo
           C
Tsukiakari sekirara
Dm                       F
Suppadaka no kokoro kara hagureta
      E
Nagareboshi deshita


Riff before of chorus:
---------------------------- ----------------------------
---------------------------- ----------------------------
-12h14p12---7h9p7----------- -12h14p12---7h9p7-----------
-12h14p12---7h9p7----------- -12h14p12---7h9p7-----------
---------------------------- ----------------------------
---------------------------- ----------------------------

(chorus)

Am
Nee! oshiete yo
G           F            C
Aru ga mama ikite yukeru hodo

F               C
Junjou nanka ja nai
       G
Arasou koto mo
D
Sakerarenai no

Am      G
Kitto karamawari
F                 C
Kurikaesu kyoukun ni
F            G
shihaisaretenda

           Am
Dou sureba ii no
G
Nee uso desho?

(solo) F G Em Am
       F G Am

-----------------------------------------------15-13-12---------------------------------
-1/12-12-13-12--------12-13-12--------12-13-12----------13b15~15b13p12--15-12--13p12----
---------------14--14----------12--12------------------------------------------------14-
----------------------------------------------------------------------------------------
----------------------------------------------------------------------------------------
----------------------------------------------------------------------------------------

-----------------------------------------------------------------------------
-----------------------------------------------------------------------------
-12-xx-12/14-14-14-14-12-xx-12-xx 12/14-14-14-14-14-17-xx-16-xx-14-xx-12-14--
-----------------------------------------------------------------------------
-----------------------------------------------------------------------------
-----------------------------------------------------------------------------

(bridge)

Bb       F
Kuusou bakari egaite
  Bb
susumenai
F     Gm        Am
Aisou yoku mo narenai
  Bb
Naze darou?
  C
… it's all too much

(riff before of chorus)

---------------------------- ----------------------------
---------------------------- ----------------------------
-12h14p12---7h9p7----------- -12h14p12---7h9p7-----------
-12h14p12---7h9p7----------- -12h14p12---7h9p7-----------
---------------------------- ----------------------------
---------------------------- ----------------------------

(chorus)
Am
Nee! oshiete yo
G           F               C
Aru ga mama ikite yuku tame ni

F                 C
Semaru nandai sae mo
          G
Yuumoa ni kaete
  D
Warai tobashitai

Am    G
Datte kaiketsu dekinai
F                C
Nichijou ni umoreru

F                   G
Dakara shinjiteitai yo
              Am
Kisekitte aru desho?
G
Nee sou desho?

(other)
Am G F F
Am G F E
Am

(together)
--------------------------------------------- ---------------------------------------------
--------------------------------------------- ---------------------------------------------
--------5--------4-----------2---5---5/7-5-4- --------5--------4-----------2---5---5/7-5-4-
-7--7-7---7--5-5---5--3--3-3---3---3--------- -7-7-7---7-5-5---5-3-3-3---3---3-------------
--------------------------------------------- ---------------------------------------------
--------------------------------------------- ---------------------------------------------

--------------------------------------------- ---------------------------------------------
--------------------------------------------- ---------------------------------------------
--------5--------4--------2--2/5-4----------- --------5--------4--------2--2/5-4-----------
-7--7-7---7--5-5---5--3-3-------------------- -7-7-7---7-5-5---5-3-3-----------------------
--------------------------------------------- ---------------------------------------------
--------------------------------------------- ---------------------------------------------
Composição de Yui
Colaboração e revisão:
  • Gabriela Rocha
3.287 exibições
    • ½ Tom
    • A
    • Bb
    • B
    • C
    • Db
    • D
    • Eb
    • E
    • F
    • F#
    • G
    • Ab
  • Adicionar à lista

    0 comentários

    Mostrar mais comentários

    Conseguiu tocar?

    0 Tocaram 0 Ainda não

    Grave um vídeo tocando It's All Too Much e mande pra gente!

    00:00 / 00:00
    outros vídeos desta música
    repetir qualidade Automático
    Outros vídeos desta música
    00:00 / 00:00
    Automático
    OK