Cifra Club

Aprenda

Jam

Yui

Cifra: Principal (violão e guitarra)
Tom: G
Intro: Em  G  Am  D 
       Em  G  Am  D
E|------3-5--7~---10\7------3-5-----|
B|--3/5-----------------3/5---3-5~--|
G|----------------------------------|
D|----------------------------------|
A|----------------------------------|
E|----------------------------------|

Em      G        Am              D
Nando ieba ii no anata ga omou hodo ii ko ja nai
Em        G          Am                  D
GASORIN SUTANDO no kado wo magaru furui souko no naka

B5                    C5         B5                     C5         B5
RAIVU HAUSU gaeri no BANDO tachi    atsumete JAMUru mokuyoubi no yoru

     C               G                D               Em
PUNK ROCK ga suki na aitsu wa natsu demo kawaJAN wo kiteru
       C           G               D
Chotto okashiku omou keredo saikou na jikan
     A5            C5
Oh anarchy in the night Yeah!

( Em  A5 )

Em            G           Am               D
Ashita TEREBI da yo to denwa ga naru gomen ne kaera nakucha
Em     G             Am                 D
Punk's not dead! HEN na kao shite warawase te kureta ne

B5                   C5
Mukae ni konaku temo ii noni
B5                    C5              B5
Menkyo to BAIKU ga hoshiku natte kichau

     C               G             D             Em
PUNK ROCK ga suki na aitsu no RESUPOORU wa omo sugiru
       C                G             D
Atashi ga DORAMU wo tataku kara saigo ni Oh Baby
     A5            C5
Oh anarchy in the night Yeah!
Solo:
    E5     G5        B5         E5
E|--12-10-------------11-12-14-12-19--|
B|--------10-8--10-12-----------------|
G|------------------------------------|
D|------------------------------------|
A|------------------------------------|
E|------------------------------------|
    C5       G5     A5                                 B5
E|-15-14-12-17-15-------------------10-12-15-15-14----17-15-17-19--|
B|-------------------------10-12-13--------------------------------|
G|-------------------11-12-----------------------------------------|
D|-----------------------------------------------------------------|
A|-----------------------------------------------------------------|
E|-----------------------------------------------------------------|

       C              G               D                     Em
Kuchibiru wo chotto togarase te aitsu no shigusa wo mane te miru
       C               G
Atashi no Guitar ni datte My Rocks
     D                 Em
Make teru tsumori wa nai kara ne
     C               G            D               Em
PUNK ROCK ga ikita jidai wa ima demo zutto tsuzui teru
       C                  G               D
Chotto kurai kowashi te yuka nakucha Oh Baby No Future
     A5            C5
Oh anarchy in the night Yeah!

( Em  G  Am  D  Em G  Am  D  Em )
E|----------3-5--7~---10\7-------3-5~----10~--|
B|-----3/5-------------------3/5-------8------|
G|-----------------------------------9--------|
D|--------------------------------------------|
A|--------------------------------------------|
E|--------------------------------------------|

Composição de Yui
Colaboração e revisão:
  • Ju Nunes
610 exibições
    • ½ Tom
    • A
    • Bb
    • B
    • C
    • Db
    • D
    • Eb
    • E
    • F
    • F#
    • G
    • Ab
  • Adicionar à lista

    0 comentários

    Mostrar mais comentários

    Conseguiu tocar?

    2 Tocaram 0 Ainda não

    Grave um vídeo tocando Jam e mande pra gente!

    00:00 / 00:00
    outros vídeos desta música
    repetir qualidade Automático
    Outros vídeos desta música
    00:00 / 00:00
    Automático

    Cifra Club Pro

    Aproveite o Cifra Club com benefícios exclusivos e sem anúncios
    Cifra Club Pro
    Aproveite o Cifra Club com benefícios exclusivos e sem anúncios
    OK