Cifra Club

Aprenda

Rain

Yui

Cifra: Principal (violão e guitarra)
Tom: F
Intro Solo:
E|------------------10----------------------------------------8-----
B|-------10------10-10--10---------------------------------10----10-
G|-10-12-----12------------12--10-9---10-9-10-1012-10--10----------
D|------------------------------------------------------------------
A|------------------------------------------------------------------
E|------------------------------------------------------------------

E|------------------10-------------------------10-------------------
B|-------10------10-10--10---------------------10-------13-13-13-13-
G|-10-12-----12------------12--10-9---10----10-----10---12-12-12-12-
D|---------------------------------------12-------------------------
A|------------------------------------------------------------------
E|------------------------------------------------------------------

Pre-Refrão 1:
  Gm           Bb           F            C
E|-------5-3--------6-6------------1--------------8---------------
B|---3-------3-----------------1-----1----------------------------
G|-----3----------7-----7--------2-----2-----9------9-------------
D|-5------------8---------8--3-----------------10-----10----------
A|----------------------------------------10----------------------
E|----------------------------------------------------------------

  Gm           Bb           Gm
E|-------5----------6--------------5------------------------------
B|---3-----3-------------------3-----3----------------------------
G|-----3-----3----7---7----------3-----3--------------------------
D|-5--------------------8----5------------------------------------
A|--------------8---------8---------------------------------------
E|----------------------------------------------------------------

Lick:
E|----------------------------------------------------------------
B|----------------------------------------------------------------
G|-9b10b9-7-5-----------------------------------------------------
D|------------75-3-----------------------------------------------
A|-------------------5p3h5----------------------------------------
E|----------------------------------------------------------------

Pre-Refrão 2:
  Gm           Bb           F            C
E|-------5----------6-6------------3-1----------------------------
B|---3-----3-------------------1-------1----5---6p5---------------
G|-----3-----3----7-----7----2---2------------5-----5-------------
D|-5------------8---------8---------------5-----------5-----------
A|----------------------------------------------------------------
E|----------------------------------------------------------------

  Gm           Bb           Gm
E|-------5----------6-6------------5------------------------------
B|---3-----3-------------------3-----3----------------------------
G|-----3-----3----7-----7--------3-----3--------------------------
D|-5----------------------8--5------------------------------------
A|--------------8-------------------------------------------------
E|----------------------------------------------------------------

Solo:
E|-----------------------------------------------12b13--12--10-------------
B|--------------------11---------------------------------------10-13b15b13-
G|----9-------9-10-12-----10------9--10--12--10----------------------------
D|-11---11-12-----------------12-------------------------------------------
A|-------------------------------------------------------------------------
E|-------------------------------------------------------------------------

E|---------------------------15----13----12--------------------------------
B|-----------------------13----13----13----13---13b15--13b15b13-10--------
G|-15-x-x-14-x-x-15-17---------------------------------------------12-10--
D|-------------------------------------------------------------------------
A|-------------------------------------------------------------------------
E|-------------------------------------------------------------------------

E|----------------------------------------------------------------
B|----------------------------------------------------------------
G|-12b14-12-10-9--------------------------------------------------
D|----------------11----------------------------------------------
A|----------------------------------------------------------------
E|----------------------------------------------------------------

Solo:
E|------------------10----------------------------------------8-----
B|-------10------10-10--10---------------------------------10----10-
G|-10-12-----12------------12--10-9---10-9-10-1012-10--10----------
D|------------------------------------------------------------------
A|------------------------------------------------------------------
E|------------------------------------------------------------------

E|------------------10-------------------------10-------------------
B|-------10------10-10--10---------------------10-------13-13-13----
G|-10-12-----12------------12--10-9---10----10-----10---12-12-12----
D|---------------------------------------12-------------------------
A|------------------------------------------------------------------
E|------------------------------------------------------------------

Intro : Am
        Dm  C  Bb  C (x2)


 Dm     C       Bb           C
Machi awase no yoru ki ga tsuiteita
 Dm     C        Bb   C
Kagami no jibun ni toikakeru

    Gm           Bb
Shiroi kooto saenai kao
   F                 C
Hontou wa kitai shiteru
  Gm                 Bb
TAKUSHII ga tsukamaranai mama
  Gm                A   Bb  C
Kokudou zoi wo isoida.


 Bb               C
Kasa ga nainante yoku aru koto
 Dm              F            Gm
Tsumunui nante aruita X'MAS EVE
   Am      Bb          A7
Dare no seiini mo dekinai jyanai
 Bb              C
Jibun katte ni egaita STORY
 Dm                 F                 Gm
Honno sukoshi no shiawase dake de ii no
    Am       Bb    C               Dm
Anata wo konai wakatteiru SILENT NIGHT

 Dm    C         Bb          C
Tokei wo ki ni suru hito wa nigate yo
 Dm   C         Bb        C
Ushinai tsudzuketa kioku ga yogiru

Gm                  Bb
Doushitatte kako wa nakusenai
     F                    C
Itsumademo nagekanaide
      Gm                          Bb
Tokubetsu janai wa nando kurikaishitemo
 Gm                      A
Onaji basho de mayou kara.

Bb                  C
Uso wa nai satte uso wa yamete
Dm               F            Gm
Shinsou nante wakaranai EPISODE
     Am      Bb          A7
Kizutsuku koto ni mo nareteiru
Bb             C
Mujun datte zenbu uketometa
Dm                  F              Gm
Subete wo kowasu yuuki nante nakatta
         Am  Bb     C              Dm
Anata wa konai hitorikiri SILENT NIGHT

Bb                                                 F          C
SHOW WINDOW naranda mirai ni yumemiteita ano koro no youni
Bb                                         F         A
Bonyari to utsutta CANDLE ni akogareta sayonara dane.

Bb  C   Dm  F
Gm  Am  Bb  A7

Bb                 C
Kono ame ga itsuka konayuki ni natte
Dm                 F                Gm
Kanashimi wo sotto tsutsumi komu toki
   Am   Bb       C
Atarashii  kibou ni deau no


Bb               C
Itsu datte HOLY NIGHT tanoshimeta
Dm          F                   Gm
Otonatte chotto sabishigari dakara
     Am     Bb         C             Dm
Naitatte iin da hajimari no SILENT NIGHT


Outro : Dm  C  Bb  C
        Dm  C  Bb  C
        Dm
Composição de Yui
Colaboração e revisão:
  • Gabriel Vieira
  • Andy Steward
  • Edenilson Peixoto
1.191 exibições
  • Simplificar cifra
    • ½ Tom
    • A
    • Bb
    • B
    • C
    • Db
    • D
    • Eb
    • E
    • F
    • F#
    • G
    • Ab
  • Adicionar à lista

    0 comentários

    Mostrar mais comentários

    Conseguiu tocar?

    3 Tocaram 0 Ainda não

    Grave um vídeo tocando Rain e mande pra gente!

    00:00 / 00:00
    outros vídeos desta música
    repetir qualidade Automático
    Outros vídeos desta música
    00:00 / 00:00
    Automático
    OK