Cifra Club

Yozora No Mukou

Yui

Cifra: Principal (violão e guitarra)
Selo Cifra Club: esta cifra foi revisada para atender aos critérios oficiais da nossa Equipe de Qualidade.
tom: Em
Intro

E|--0-----------0-----2-------------------------------|
B|-----0----0---------0---10----------8-----| 7--------|
G|--------0--------2----------7----7---------7--------|
D|--------------0----------------9---------9----------|
A|--3----------------------7-----------7--------------|
E|----------------------------------------------------|

E|----------------------------------------------------|
B|----5------------4-----------------------3----------|
G|-------5----5--------2----------------0-------------|
D|----------5---------------4---------2---------------|
A|----3------------2----------------2-----------------|
E|--------------------------------0-------------------|

E|--0-----------------2----------------------7--------|
B|-----0----0---4---------| 8----------10--------------|
G|--------0--------2----------7----7------------------|
D|-------------------------------9--------------------|
A|--3-----------2----------7-----------7--------------|
E|----------------------------------------------------|

E|---------------------------------------------------------|
B|----5------------4-----------------------3------------3--|
G|--------5------------2----------------0-------------0----|
D|------------5------------4----------2-------------2------|
A|----3------------2----------------2-------------2--------|
E|--------------------------------0--------------0---------|

Chorus

E|---------------------------------------------------------|
B|---------0-------------3------------0------3-------------|
G|---------0-------------0------------0---------0---0------|
D|------2-----2-------4----4------2-----2--------4---------|
A|----3----------3/5------------2------------5-------------|
E|---------------------------------------------------------|
E|---------------------------------------------------------|
B|---------0-------------3-----------0----1---0------------|
G|---------0-------------0-----------0----0---0------------|
D|------2-----2-------4----4-----0-----0---0---0-----------|
A|----3----------3/5---------------------------------------|
E|-------------------------------3-------------------------|
E|---------------------------------------------------------|
B|---------0-------------3------------0------3-------------|
G|---------0-------------0------------0---------0---0------|
D|------2-----2-------4----4------2-----2--------4---------|
A|----3----------3/5------------2------------5-------------|
E|---------------------------------------------------------|
E|---------------------------------------------------------|
B|---------0-------------3-------0-------------------------|
G|---------0-------------0-------0-------------------------|
D|------2-----2-------4----4----0--------------------------|
A|----3----------3/5------------| 2-------------------------|
E|--------------------------------3------------------------|

Break

E|------3-------7-------------------------------------|
B|-----3-------7----7---------8----8---10--8----------|
G|----0-------7---------------7----7---| 7---7---------|
D|--------------------------9----9--------------------|
A|---3-------9-----------7----------------------------|
E|----------------------------------------------------|

E|-----3-------3--5--3--5-----7--6------5-------------|
B|--------5----5--3--5--3----5---------7--------------|
G|----------5-----------------5--------7--------------|
D|----------------------------------------------------|
A|-----3---------------------5--------5---------------|
E|----------------------------------------------------|


Verse (Enter Suga)

E|---------0-----------2---------------------------------|
B|---------0-----------3------------0----------2---------|
G|------0-----0-----2----2---------0---------0-----------|
D|----------------0--------------2-----2-----2-----------|
A|----3--------------------------------------0-----------|
E|----------------------------0--------------------------|

E|-------------------------2-----------------------------|
B|----------0-------------3------------| 0-----0-----0----|
G|----------0----------2-----2---------0-----0-----0-----|
D|-------2-----2---0----------------0-----0-----0--------|
A|----3--------------------------------------------------|
E|---------------------------------3---------------------|

E|---------0-----------2---------------------------------|
B|---------0-----------3------------0----------2---------|
G|------0-----0-----2----2---------0---------0-----------|
D|----------------0--------------2-----2-----2-----------|
A|----3--------------------------------------0-----------|
E|----------------------------0--------------------------|

E|----------------------------------------------------|
B|----------0------------0-------------4--------------|
G|----------0------------0----------2----2------------|
D|-------2-----2------2----2-----4---------4----------|
A|----3-------------3----------2----------------------|
E|----------------------------------------------------|

E|----------3----------------2---------------------------------|
B|----------0--0----------3----3----------1------------3-------|
G|----------0----0-----2---------2--------0------------0-------|
D|-------2-----------0------------------2----2-------4----4----|
A|-----2------------------------------3----------3/5-----------|
E|---0---------------------------------------------------------|

E|---------------------------------------------------------------|
B|----------0---------------------1--------------------3---------|
G|----------0---4---4---------0------0-------------4----4--------|
D|-------0------3---3------2-----------2---------4--------4------|
A|--------------| 5---5---3-----------------3---2-------------2---|
E|-----3--------| 3---3-------------------------------------------|

E|--------------------5--------2-----2h3----2h3---2-------|
B|----------5--------5--------3-----3-------3------3------|
G|----------5-----5--------2-----2------------------------|
D|-------5---------------0--------------------------------|
A|----3---------0-----------------------------------------|
E|--------------------------------------------------------|

Chorus

E|-------------------------------------------------------|
B|---------0-------------3------------0------3-----------|
G|---------0-------------0------------0---------0---0----|
D|------2-----2-------4----4------2-----2--------4-------|
A|----3----------3/5------------2------------5-----------|
E|-------------------------------------------------------|

E|-------------------------------------------------------|
B|---------0-------------3-----------0----1---0----------|
G|---------0-------------0-----------0----0---0----------|
D|------2-----2-------4----4-----0-----0---0---0---------|
A|----3----------3/5-------------------------------------|
E|-------------------------------3-----------------------|

repeat X 2

E|-------------------------------------------------------|
B|---------0-------------3------------0------3-----------|
G|---------0-------------0------------0---------0---0----|
D|------2-----2-------4----4------2-----2--------4-------|
A|----3----------3/5------------2------------5-----------|
E|-------------------------------------------------------|

E|-------------------------------------------------------|
B|---------0-------------3-------0-----------------------|
G|---------0-------------0-------0-----------------------|
D|------2-----2-------4----4----0------------------------|
A|----3----------3/5------------| 2-----------------------|
E|--------------------------------3----------------------|
capo - 3rd fret

Break 2

E|----0---------0----2---------------------------------|
B|------0---0--------0--------0-----3------------------|
G|--------0-------2-----------0--------0---0-----------|
D|--------------0-----------2---2--------4-------------|
A|----3------------------2-----------5-----------------|
E|-----------------------------------------------------|

E|-----------------------------------------------------|
B|----------0---------------3------0-------------------|
G|----------0------------0----0---0--------------------|
D|-------2----2-------4-----------0--------------------|
A|-----3----------3/5-------------2--------------------|
E|---------------------------------3-------------------|


Verse (Enter YUI)

E|---------0-----------2-------------------------------|
B|---------0-----------3------------0----------2-------|
G|------0-----0-----2----2---------0---------0---------|
D|----------------0--------------2-----2-----2---------|
A|----3--------------------------------------0---------|
E|----------------------------0------------------------|

E|-------------------------2------------------------------|
B|----------0-------------3------------| 0-----0-----0-----|
G|----------0----------2-----2---------0-----0-----0------|
D|-------2-----2---0----------------0-----0-----0---------|
A|----3---------------------------------------------------|
E|---------------------------------3----------------------|
E|---------0-----------2----------------------------------|
B|---------0-----------3------------0----------2----------|
G|------0-----0-----2----2---------0---------0------------|
D|----------------0--------------2-----2-----2------------|
A|----3--------------------------------------0------------|
E|----------------------------0---------------------------|
E|--------------------------------------------------------|
B|----------0------------0-------------4------------------|
G|----------0------------0----------2----2----------------|
D|-------2-----2------2----2-----4---------4--------------|
A|----3-------------3----------2--------------------------|
E|--------------------------------------------------------|

E|----------3----------------2---------------------------------|
B|----------0--0----------3----3----------1------------3-------|
G|----------0----0-----2---------2--------0------------0-------|
D|-------2-----------0------------------2----2-------4----4----|
A|-----2------------------------------3----------3/5-----------|
E|---0---------------------------------------------------------|

E|----------------------------------------------------------------|
B|----------0---------------------1--------------------3----------|
G|----------0---4---4---------0------0-------------4----4---------|
D|-------0------3---3------2-----------2---------4--------4-------|
A|--------------| 5---5---3-----------------3---2-------------2----|
E|-----3--------| 3---3--------------------------------------------|

E|--------------------5--------2-----2h3----2h3---2-------|
B|----------5--------5--------3-----3-------3------3------|
G|----------5-----5--------2-----2------------------------|
D|-------5---------------0--------------------------------|
A|----3---------0-----------------------------------------|
E|--------------------------------------------------------|


Chorus

E|---------------------------------------------------------|
B|---------0-------------3------------0------3-------------|
G|---------0-------------0------------0---------0---0------|
D|------2-----2-------4----4------2-----2--------4---------|
A|----3----------3/5------------2------------5-------------|
E|---------------------------------------------------------|

E|---------------------------------------------------------|
B|---------0-------------3-----------0----1---0------------|
G|---------0-------------0-----------0----0---0------------|
D|------2-----2-------4----4-----0-----0---0---0-----------|
A|----3----------3/5---------------------------------------|
E|-------------------------------3-------------------------|

repeat X 4

E|---------------------------------------------------------|
B|---------0-------------3------------0------3-------------|
G|---------0-------------0------------0---------0---0------|
D|------2-----2-------4----4------2-----2--------4---------|
A|----3----------3/5------------2------------5-------------|
E|---------------------------------------------------------|

E|---------------------------------------------------------|
B|---------0-------------3-------0-------------------------|
G|---------0-------------0-------0-------------------------|
D|------2-----2-------4----4----0--------------------------|
A|----3----------3/5------------| 2-------------------------|
E|--------------------------------3------------------------|

E|--0-----------0-----2-----------------------7-------|
B|-----0----0---------0----8----------10--------------|
G|--------0--------2----------7----7------------------|
D|--------------0-----------------9-------------------|
A|--3-----------------------7-----------7-------------|
E|----------------------------------------------------|

E|-------------------------------------------------3--------0--|
B|----5------------4-----------------------3--------------0----|
G|--------5------------2----------------0----------------0-----|
D|------------5------------4----------2------------------------|
A|----3------------2----------------2-------------------3------|
E|--------------------------------0----------------------------|
00:00 / 00:00
Outros vídeos desta música
Repetir
Outros vídeos desta música
2 exibições
    • ½ Tom
    • Am
    • Bbm
    • Bm
    • Cm
    • C#m
    • Dm
    • Ebm
    • Em
    • Fm
    • F#m
    • Gm
    • G#m
  • Adicionar à lista

Afinação da cifra

Afinador online

    0 comentários

    Ver todos os comentários

    Entre para o Cifra Club PRO

    Tenha acesso a benefícios exclusivos no App e no Site

    • Chega de anúncios

    • Mais recursos no app do Afinador

    • Atendimento Prioritário

    • Aumente seu limite de lista

    • Ajude a produzir mais conteúdo

    00:00 / 00:00

    Cifra Club Pro

    Aproveite o Cifra Club com benefícios exclusivos e sem anúncios
    Cifra Club Pro
    Aproveite o Cifra Club com benefícios exclusivos e sem anúncios
    OK