Cifra Club

Sinônimo

Zé Ramalho

Cifra: Principal
exibições 1.559.839
Tom: C
(intro) C G Dm F (2x)

D|--------------------|
A|--------3h--5--3----|
E|--3h--5-------------|

E|-8-7-5-7-5---5------------------------------------------------------|
B|-----------8---8-6-8-6-5-6-5---5------------------------------------|
G|-----------------------------7---7-5-7-5-5-5-5-5-5-5-5-5-5-5-5------|  (2x)
D|--------------------------------------------------------------------|
A|--------------------------------------------------------------------|
E|--------------------------------------------------------------------|

E|-----------------------------------|
B|-----------------------------------|
G|-----------------------------------|   (este solo é feito no final de cada parte.)
D|--0--2--3--2--0--------------------|   (saber, sofrer, espinhos)
A|-----------------------3--5--3-----|
E|-----------------3--5--------------|

C                    G         Dm          F
Quanto tempo o coração, leva pra saber
E|-----------------------------------------------|
B|-----------------------------------------------|
G|-----------------------------------------------|
D|--0--2--3--2--0--------------------------------|
A|-----------------------3--5--3-----------------|
E|-----------------3--5--------------------------|

C                     G         Dm      F
Que o sinônimo de amar, é sofrer
C                G                Dm        F
Num aroma de amores, pode haver espinhos
C                     G                 Dm        F
É como ter mulheres em milhões, e ser sozinho
E|-----------------------------------------------|
B|-----------------------------------------------|
G|-----------------------------------------------|
D|--0--2--3--5--3--2--0--------------------------|
A|-----------------------------------------------|
E|-----------------------------------------------|

G                Dm           G      F
Na solidão de casa, descansar            (riff)
G               Dm           C
O sentido da vida, encontrar
G                            Dm              F
Quem pode dizer onde a felicidade, esta. . .

C                       G                      Dm
O amor é feito de paixões e quando perde a razão
  F         G              C
Não sabe quem vai machucar
                    G                      Dm
Quem ama nunca sente medo de contar o seu segredo
    F          G          C
Sinônimo de amor é amar

C                     G         Dm           F
  Quem revelará o mistério, que tenha fé
C                     G                        Dm     F
  E quantos segredos traz, o coração de uma mulher
C                     G                     Dm         F
  Como é triste a tristeza, mendigando um sorriso
C                       G                       Dm      F
  Um cego procurando a luz, na imensidão do paraiso

D                  Am        D       C
  Quem tem amor na vida, tem sorte
D                Am                 G
  Tem a fraqueza sabe, ser bem mais forte
D                                 Am             C
  Ninguém sabe dizer onde a felicidade, está. . .

C                       G                      Dm
 O amor é feito de paixões e quando perde a razão
    F          G       C
Não sabe quem vai machucar
                     G                      Dm
Quem ama nunca sente medo de contar o seu segredo
   F          G         C
Sinônimo de amor é amar   (2x)

(solo) G  D  Am  C  G  Dm  F  G

C                     G         Dm          F
  Quem revelará o mistério, que tenha fé
C                     G                        Dm     F
  E quantos segredos traz, o coração de uma mulher
C                     G                     Dm       F
  Como é triste a tristeza, mendigando um sorriso
C                       G                       Dm     F
  Um cego procurando a luz, na imensidão do paraízo

C                       G                      Dm
O amor é feito de paixões e quando perde a razão
  F         G              C
Não sabe quem vai machucar
                    G                      Dm
Quem ama nunca sente medo de contar o seu segredo
    F          G          C
Sinônimo de amor é amar  (2x)

(riff)
E|-8-7-5-7-5-5-----------------------
B|----------8-8-6-8-6-5-6/8-6-5------
G|------------------------------7----
Acordes para:

    0 comentários

      mostrar mais comentários

      Conseguiu tocar?

      99tocaram2ainda não

      Grave um vídeo tocando Sinônimo e mande pra gente!

      00:00 / 00:00
      outros vídeos desta música
      repetirqualidadeautomática
      Outro vídeos desta música
        00:00 / 00:00
        automática
        Capítulos
        • Início
        • Acordes da música
        • Tocando solo da introdução
        • Ensinando solo da introdução
        • Acordes da segunda parte
        • Tocando a segunda parte
        • Ensinando segunda parte
        • Acordes da terceira parte
        • Tocando a terceira parte
        • Ensinando a terceira parte
        • Acordes da quarta parte
        • Tocando a quarta parte
        • Ensinando a quarta parte
        OK