Cifra Club

Cadê o Amor?

Zé Vaqueiro

Cifra: Principal (violão e guitarra)
tom: C#m
[Intro] A  C#m  G#m  F# 

E|---------0---------------0-----------------4----------------4----|
B|------------3----------------3-----------------5---------------4-|
G|------2--------------2----------------6-----------------4--------|
D|-----------------------------------------------------------------|
A|---0-------------0----------------4------------------------------|
E|---------------------------------------------------4-------------|

E|---------4---------------2--------------2------------------------|
B|------------4---------------2---------------2--------------------|
G|-----4---------------3--------------3----------------------------|
D|-----------------------------------------------------------------|
A|-----------------------------------------------------------------|
E|--4--------------2---------------2-------------------------------|

[Parte 1]

A                      C#m  G#m
  Pare um pouco pra pensar
                 F#
Aonde tu quer chegar
A                          C#m   G#m
  Porque não tá dando pra mim
                   F#
Pra mim só fica ruim

[Pré-Refrão]

    A                  C#m
Eu tenho que ficar correndo
                 G#m
Sempre te satisfazendo
         F#
E nem o mínimo eu tô recebendo

[Refrão]

A       C#m
Cadê o amor

              G#m
Se não vai me dar

Arruma outro
               F#
Se não vai me dar

Arruma outro

A      C#m
Cadê o amor
              G#m
Se não vai me dar

Arruma outro
          F#
Ficar sofrendo não sou louco

[Solo de passagem] A  C#m  G#m  F#

E|---------0---------------0-----------------4----------------4----|
B|------------3----------------3-----------------5-------------| -4-|
G|------2--------------2----------------6-----------------4--------|
D|-----------------------------------------------------------------|
A|---0-------------0----------------4------------------------------|
E|---------------------------------------------------4-------------|

E|---------4---------------2----------------|
B|------------4---------------2-------------|
G|-----4---------------3--------------------|
D|------------------------------------------|
A|------------------------------------------|
E|--4--------------2------------------------|

[Parte 2]

A                      C#m  G#m
  Pare um pouco pra pensar
                 F#
Aonde tu quer chegar
A                          C#m   G#m
  Porque não tá dando pra mim
                   F#
Pra mim só fica ruim

[Pré-Refrão]

    A                  C#m
Eu tenho que ficar correndo
                 G#m
Sempre te satisfazendo
         F#
E nem o mínimo eu tô recebendo

[Refrão]

A       C#m
Cadê o amor
              G#m
Se não vai me dar

Arruma outro
               F#
Se não vai me dar

Arruma outro

A      C#m
Cadê o amor
              G#m
Se não vai me dar

Arruma outro
          F#
Ficar sofrendo não sou louco


A       C#m
Cadê o amor
              G#m
Se não vai me dar

Arruma outro
               F#
Se não vai me dar

Arruma outro

A      C#m
Cadê o amor
              G#m
Se não vai me dar

Arruma outro
          F#
Ficar sofrendo não sou louco

[Solo] A  C#m  G#m  F# 

E|---------0---------------0-----------------4----------------4----|
B|------------3----------------3-----------------5---------------4-|
G|------2--------------2----------------6-----------------4--------|
D|-----------------------------------------------------------------|
A|---0-------------0----------------4------------------------------|
E|---------------------------------------------------4-------------|

E|---------4---------------2---------------------------------------|
B|------------4---------------2------------------------------------|
G|-----4---------------3-------------------------------------------|
D|-----------------------------------------------------------------|
A|-----------------------------------------------------------------|
E|--4--------------2-----------------------------------------------|
00:00 / 00:00
Outros vídeos desta música
Repetir
Outros vídeos desta música
Composição de DJ Ivis
Colaboração e revisão:
  • Raffael Uascar
  • Antonio Neto
  • Vítor Novaes
12.548 exibições
    • ½ Tom
    • Am
    • Bbm
    • Bm
    • Cm
    • C#m
    • Dm
    • Ebm
    • Em
    • Fm
    • F#m
    • Gm
    • G#m
  • Adicionar à lista

    0 comentários

    Ver todos os comentários

    Conseguiu tocar?

    1 Tocaram 0 Ainda não

    Grave um vídeo tocando Cadê o Amor? e nos envie!

    Entre para oCifra Club PRO

    Tenha acesso a benefícios exclusivos no App e no Site

    • Chega de anúncios

    • Prioridade de compra em lançamentos

    • Mais recursos no app do Afinador

    • Atendimento Prioritário

    • Descontos nos produtos Cifra Club

    • Ajude a produzir mais conteúdo

    00:00 / 00:00

    Cifra Club Pro

    Aproveite o Cifra Club com benefícios exclusivos e sem anúncios
    Cifra Club Pro
    Aproveite o Cifra Club com benefícios exclusivos e sem anúncios
    OK