Cifra Club

Flor Da Pele

Zeca Baleiro

Cifra: Impessao (violão e guitarra)
tom: C
Intro: Am7(9)  G  F  E7(4)  E7

Primeira Parte:

Am7(9)
       Ando tão à flor da pele
              G
Que qualquer beijo de novela

Me faz chorar
F
  Ando tão à flor da pele
           E7(4)
Que teu olhar "flor na janela"
    E7
Me faz morrer


Am7(9)
       Ando tão à flor da pele
       G
Meu desejo se confunde

Com a vontade de não ser
F
  Ando tão à flor da pele
             E7(4)
Que a minha pele
                E7
Tem o fogo do juízo final

Am7(9)
       Ando tão à flor da pele
              G
Que qualquer beijo de novela

Me faz chorar
F
  Ando tão à flor da pele
           E7(4)
Que teu olhar "flor na janela"
    E7
Me faz morrer


Am7(9)
       Ando tão à flor da pele
       G
Meu desejo se confunde

Com a vontade de não ser
F
  Ando tão à flor da pele
             E7(4)
Que a minha pele
                E7
Tem o fogo do juízo final

Refrão:

    Dm7(9)
Um barco sem porto

Sem rumo, sem vela
   Am7(9)
Cavalo sem sela
    D#º
Um bicho solto

Um cão sem dono

Um menino, um bandido
    E7(4)
Às vezes me preservo
 E7
Noutras, suicido

Solo:

Parte 1


E|-10-10-10-10-10-10-10-10-10--8-7-7h8-8-8-8~---------|
B|----------------------------------------------------|
G|----------------------------------------------------|
D|----------------------------------------------------|
A|----------------------------------------------------|
E|----------------------------------------------------|


Parte 2


E|-7-7-7----------------------------------------------|
B|-------10-8-10-10/12-12-12-12~----------------------|
G|----------------------------------------------------|
D|----------------------------------------------------|
A|----------------------------------------------------|
E|----------------------------------------------------|


Parte 3


E|----------------------------------------------------|
B|-10-10-10-8-8---------------------------------------|
G|--------------10-10-9-9-7-7-------------------------|
D|----------------------------10-10-9-7---------------|
A|----------------------------------------------------|
E|----------------------------------------------------|


Parte 4


E|----------------------------------------------------|
B|----------------------------------------------------|
G|----------------------------------------------------|
D|-7h9-9-9-9------------------------------------------|
A|-----------7----------------------------------------|
E|-------------7-0------------------------------------|

Terceira Parte:
 
     Am7(9)
Oh, sim
                 G
Eu estou tão cansado
             F
Mas não pra dizer

Que não acredito
     E7(4)       E7
Mais       em você

           Am7(9)
Eu não preciso
             G
De muito dinheiro

Graças a Deus
     F
Mas vou tomar
              E7(4)
Aquele velho navio
                E7
Aquele velho navio

Refrão Final:

    Dm7(9)
Um barco sem porto

Sem rumo, sem vela
   Am       G   F
Cavalo sem se__la
    D#º
Um bicho solto

Um cão sem dono

Um menino, um bandido
    E7(4)
Às vezes me preservo
 E7
Noutras, suicido
00:00 / 00:00
Outros vídeos desta música
Repetir
Outros vídeos desta música
Composição de Zeca Baleiro
Colaboração e revisão:
  • Nícolas Costa
457 exibições
  • Simplificar cifra
    • ½ Tom
    • A
    • Bb
    • B
    • C
    • Db
    • D
    • Eb
    • E
    • F
    • F#
    • G
    • Ab
  • Adicionar à lista

    0 comentários

    Ver todos os comentários

    Conseguiu tocar?

    0 Tocaram 0 Ainda não

    Grave um vídeo tocando Flor Da Pele e nos envie!

    Entre para oCifra Club PRO

    Tenha acesso a benefícios exclusivos no App e no Site

    • Chega de anúncios

    • Prioridade de compra em lançamentos

    • Mais recursos no app do Afinador

    • Atendimento Prioritário

    • Descontos nos produtos Cifra Club

    • Ajude a produzir mais conteúdo

    00:00 / 00:00

    Cifra Club Pro

    Aproveite o Cifra Club com benefícios exclusivos e sem anúncios
    Cifra Club Pro
    Aproveite o Cifra Club com benefícios exclusivos e sem anúncios
    OK