Cifra Club

Aprenda

Proibida Pra Mim

Zeca Baleiro

Cifra: Principal (violão e guitarra)
tom: G
(intro) G F6(9) Em7 Eb7M (2x)
        C9 G/B Am G

(dedilhado intro)

(parte 1)
     G           F6(9)
E|----3---------------3------3--|
B|----3-------------3------3----|
G|----0---0-------0------0------|
D|--0--------0--3------3--------|
A|--2---2-----------------------|
E|--3---------------------------|

(parte 2)
     Em7              Eb7M
E|--------3----------3-----3------3--|
B|------3------3---------3------3----|
G|----0------0---------0------0------|
D|--2------2---------1------1--------|
A|-----------------------------------|
E|-----------------------------------|      (2x)

(parte 3)
     C9    G/B   Am
E|--------------------|
B|--3-----3-----1-----|
G|-----0-----0--------|
D|-----------------0--|
A|--3-----2-----0-----|
E|--------------------|

(solo intro)

(parte 1)                       (parte 2)
E|-----------------------------|------------------8p7----8-7-8/10~-|
B|-----------------------------|---------6-8/10-------8------------|
G|-------------4/5-4---4/5-4---|-------7---------------------------|
D|-----5p3-5/7-------5-------5-|-7-7/9-----------------------------|
A|---5-------------------------|-----------------------------------|
E|-7---------------------------|-----------------------------------|

(parte 3)
|--8-7-5-7-3--|
|-------------|
|--9-7-5-7-4--|
|-------------|
|-------------|
|-------------|

(primeira parte)
G9                   D
  Ela achou o meu cabelo engraçado
Em7             C9
  Proibida Pra mim "no way".
G9                  D
  Disse que não podia ficar,
Em7                     C9
  Mas levou a sério o que eu falei
G9                         D
  Eu vou fazer de tudo o que eu puder.
Em7                      C9
  Eu vou roubar essa mulher pra mim
G9                      D          Em7               (C9 G/B Am)
  Eu posso te ligar a qualquer hora, mas eu nem sei o seu nome

(dedilhado primeira parte)

     G9                D
E|----------------------------2p3h2------|
B|----------0-------------3---------3----|
G|------2-------2-------2---2---------2--|
D|----0---0---0---0---0------------------|
A|---------------------------------------|
E|--3------------------------------------|

     Em7               C9
E|----------3-------------------0------|
B|------3-------3-----------3-------3--|
G|----0---0---0---0-------0---0---0----|
D|--2-------------------2--------------|
A|--------------------3----------------|
E|-------------------------------------|

(final do dedilhado da primeira parte)

     C9   G/B   Am
E|--------------------|
B|--3-----3-----1-----|
G|-----0-----0--------|
D|-----------------0--|
A|--3-----2-----0-----|
E|--------------------|

(solo primeira parte - passagens)

(1ª passagem)
E|------------------7-----------0--------------------|
B|--8-7h8p7-----7h8---8---8--------------------------|
G|----------7-----------7-7h9-7---7------------------|
D|------------9---------------------7/9--------------|
A|---------------------------------------------------|
E|---------------------------------------------------|

(2ª passagem)
E|-------------------7---------8---7---5----3--------|
B|-10-10-7h8p7-8-7-8---8-----------------------------|
G|-----------------------7/9-9---7---7---5--4--------|
D|---------------------------------------------------|
A|---------------------------------------------------|
E|---------------------------------------------------|

(3ª passagem)
E|------------------------------0--------------------|
B|-8-7h8p7--------7-8h7---8--------------------------|
G|---------7------------7-7h9-7---7------------------|
D|-----------10-9-------------------7/9--------------|
A|---------------------------------------------------|
E|---------------------------------------------------|

(4ª passagem)
E|-----------7-----7--------8---7-5-7--------------|
B|-8-7h8p7-----8-----8-----------------------------|
G|---------7-----7-----7--9---7---5-7--------------|
D|-------------------------------------------------|
A|-------------------------------------------------|
E|-------------------------------------------------|

(refrão)

G9                       F9
  Se não eu, quem vai fazer você feliz?
Em7                      Eb7M(6/9)        G9    (D Em7 C9)
  Se não eu, quem vai fazer você feliz? Guerra
G                        F9
  Se não eu, quem vai fazer você feliz?
Em7                      Eb7M(6/9)        G
  Se não eu, quem vai fazer você feliz? Guerra

(dedilhado refrão)

     G9                F9
E|----------------------------3--------|
B|----------0-------------1-------1----|
G|------2-------2-------2---2---2---2--|
D|----0---0---0---0---3----------------|
A|-------------------------------------|
E|--3----------------------------------|

     Em7                Eb7M(6/9)
E|----------3-----------------6--------|
B|------3-------3---------6-------6----|
G|----0---0---0---0-----5---5---5---5--|
D|--2----------------------------------|
A|--------------------6----------------|
E|-------------------------------------|

(solo refrão)

(1ª solo refrão)
E|-3-5-----7---7-------6---6-8/10------------------|
B|---------------8---------------------------------|
G|-4---5/7---7------/8---8-------------------------|
D|-------------------------------------------------|
A|-------------------------------------------------|
E|-------------------------------------------------|

E|-10-8-7h8p7--------------------------------------|
B|------------10-8-7h8p7---------------------------|
G|-----------------------9-7-----------------------|
D|---------------------------10-9------------------|
A|-------------------------------------------------|
E|-------------------------------------------------|

E|-------------------------------------------------|
B|-7-8p7---------------------8---------------------|
G|-------9-7---------------------------------------|
D|-----------9-9\7-5---5-7/9-----------------------|
A|-------------------7-----------------------------|
E|-------------------------------------------------|

(2ª solo refrão)
E|-10-8-7h8p8-------------7------------------------|
B|------------10-8-7-8-10---8-8-7h8p7--------------|
G|-------------------------------------------------|
D|-------------------------------------------------|
A|-------------------------------------------------|
E|-------------------------------------------------|

E|-------------------------------------------------|
B|-----8-----------8-------------------------------|
G|-9-7-7h9p7-------7h9p7---------------------------|
D|-----------10------------------------------------|
A|-------------------------------------------------|
E|-------------------------------------------------|

(solo que acompanha o solo gaita)
E|-------------------------------------------------|
B|---------------8---8---8-10-10b12-8--------------|
G|------7-9/10-9---9---9---------------------------|
D|----9-------------------------------10-9---------|
A|-10----------------------------------------------|
E|-------------------------------------------------|

(repete parte 2 da intro)
E|------------------8p7----8-7-8/10~-|
B|---------6-8/10-------8------------|
G|-------7---------------------------|
D|-7-7/9-----------------------------|
A|-----------------------------------|
E|-----------------------------------|

(segunda parte)

(dedilhado igual ao da primeira parte)

G9                  D
  Eu me flagrei pensando em você
Em7                      C9
  Em tudo que eu queria te dizer.
G9                      D
  Em uma noite especialmente boa,
   Em7                          C9
  não há nada mais que a gente possa fazer.
G9                         D
  Eu vou fazer de tudo o que eu puder.
      Em7                C9
  Eu vou roubar essa mulher pra mim
G9                      D
  Eu posso te ligar a qualquer hora,
   Em7            (C9 G/B Am)
  mas eu nem sei o seu nome

(refrão)

G9                       F9
  Se não eu, quem vai fazer você feliz?
Em7                      Eb7M(6/9)        G9    (D Em7 C9)
  Se não eu, quem vai fazer você feliz? Guerra
G                        F9
  Se não eu, quem vai fazer você feliz?
Em7                      Eb7M(6/9)        G
  Se não eu, quem vai fazer você feliz? Guerra
Composição de Alexandre Magno Abrão / Luiz Carlos Leão Duarte Jr. / Marco Antonio Valentim Junior / Renato Peres Barrio
Colaboração e revisão:
  • Raoni Felipe
  • João Vilela
523.115 exibições
  • Simplificar cifra
    • ½ Tom
    • A
    • Bb
    • B
    • C
    • Db
    • D
    • Eb
    • E
    • F
    • F#
    • G
    • Ab
  • Adicionar à lista

    0 comentários

    Ver todos os comentários

    Conseguiu tocar?

    40 Tocaram 7 Ainda não

    Grave um vídeo tocando Proibida Pra Mim e nos envie!

    00:00 / 00:00
    Outros vídeos desta música
    Repetir Qualidade Automático
    Outros vídeos desta música
    00:00 / 00:00
    Automático
    Capítulos
    • Início
    • Dicas iniciais
    • Acordes da introdução
    • Tocando a introdução
    • Ensinando o dedilhado
    • Ensinando o dedilhado (parte 1)
    • Ensinando o dedilhado (parte 2)
    • Ensinando o dedilhado (parte 3)
    • Tocando o dedilhado completo devagar
    • Acordes da primeira parte
    • Tocando a primeira parte
    • Ensinando o dedilhado primeira parte
    • Ensinando o dedilhado primeira parte (parte 1)
    • Ensinando o dedilhado primeira parte (parte 2)
    • Ensinando o dedilhado primeira parte (parte 3)
    • Acordes do refrão
    • Tocando o refrão
    • Ensinando o dedilhado do refrão (parte 1)
    • Ensinando o dedilhado do refrão (parte 2)
    • Tocando o dedilhado de refrão completo devagar
    • Passagem para segunda parte
    • Tocando a última parte
    • Ensinando o ritmo da última parte
    • Ensinando solo da introdução (parte 1)
    • Ensinando solo da introdução (parte 2)
    • Ensinando solo da introdução (parte 3)
    • Solo primeira parte (1ª passagem)
    • Solo primeira parte (2ª passagem)
    • Solo primeira parte (3ª passagem)
    • Solo primeira parte (4ª passagem)
    • Ensinando o 1ª solo do refrão
    • Ensinando o 2ª solo do refrão
    • Ensinando o solo que acompanha a gaita
    • Tocando trecho da música
    • Encerramento
    • Extras

    Cifra Club Pro

    Aproveite o Cifra Club com benefícios exclusivos e sem anúncios
    Cifra Club Pro
    Aproveite o Cifra Club com benefícios exclusivos e sem anúncios
    OK