Cifra Club

As 13 Canções

Zelda

Cifra: Principal (violão e guitarra)
Selo Cifra Club: esta cifra foi revisada para atender aos critérios oficiais da nossa Equipe de Qualidade.
tom: G
(song of time)
|--17---------------17--------------------17--20--19--------|
|-------------18--------------------18------------------20--|
|--------19~~------------------19~~-------------------------|
|-----------------------------------------------------------|
|-----------------------------------------------------------|
|-----------------------------------------------------------|

|---------17-----------------------|
|-18--20-------------------17------|
|----------------19----17------19~-|
|----------------------------------|
|----------------------------------|
|----------------------------------|

(song of healing)
|--19----17----------19----17----------19----17----------------|
|--------------18----------------18----------------17------17~-|
|------------------------------------------------------19------|
|--------------------------------------------------------------|
|--------------------------------------------------------------|
|--------------------------------------------------------------|

(song of inversed time)
|------------17------------17--------------------------|
|--18------------18------------17~~--\16\15\14\13~-12~-|
|------19~~~---------19~~~-----------------------------|
|------------------------------------------------------|
|------------------------------------------------------|
|------------------------------------------------------|

(song of double time)
|--17-17---------------17--17----------------18-18-----------------|
|---------------18--18----------------18-18--------17--17--20--20--|
|--------19--19---------------19--19-------------------------------|
|------------------------------------------------------------------|
|------------------------------------------------------------------|
|------------------------------------------------------------------|

|--21--21--18-18---22---22---24~~-|
|---------------------------------|
|---------------------------------|
|---------------------------------|
|---------------------------------|
|---------------------------------|

(awake sonata)
|--22--19--22--19----------17~~----------|
|----------------------------------------|
|--------------------19-------------19~--|
|----------------------------------------|
|----------------------------------------|
|----------------------------------------|

(gale song)

|------19--22~~~~~-------19--22~~-|
|--18----------------18-----------|
|---------------------------------|
|---------------------------------|
|---------------------------------|
|---------------------------------|

(commanding vow)

|--17~~----------------17~~--22~~--|
|-------18~~------18~~-------------|
|------------19~~------------------|
|----------------------------------|
|----------------------------------|
|----------------------------------|

(song of elder)

|--------17----19----------17----19~~--|
|--------------------------------------|
|--19----------------19----------------|
|--------------------------------------|
|--------------------------------------|
|--------------------------------------|

(goron lullaby)

|----------17------19--------------17------19------17------------|
|----------------------------------------------------------------|
|--19----------------------19------------------------------19~~--|
|----------------------------------------------------------------|
|----------------------------------------------------------------|
|----------------------------------------------------------------|

(epona's song)

|--22--19-------22--19-------22--19--------19~~-------|
|----------22~~---------22~~---------22~~--------22~~-|
|-----------------------------------------------------|
|-----------------------------------------------------|
|-----------------------------------------------------|
|-----------------------------------------------------|

(sea roar bossanova)

|--19----22-19---------19-17~~-|
|--------------22~~-18---------|
|------------------------------|
|------------------------------|
|------------------------------|
|------------------------------|

(song of storms)

|--------21~~--------21~~-23---24p23h24p23\19------|
|-----18----------18--------------------------22~--|
|--19----------19----------------------------------|
|--------------------------------------------------|
|--------------------------------------------------|
|--------------------------------------------------|

|--17~~--19~~-17~~-----17--22~~-19~~-|
|------------------18----------------|
|------------------------------------|
|------------------------------------|
|------------------------------------|
|------------------------------------|
Outros vídeos desta música
12.491 exibições
    • ½ Tom
    • A
    • Bb
    • B
    • C
    • Db
    • D
    • Eb
    • E
    • F
    • F#
    • G
    • Ab
  • Adicionar à lista

Afinação da cifra

Afinador online

    0 comentários

    Ver todos os comentários

    Entre para o Cifra Club PRO

    Tenha acesso a benefícios exclusivos no App e no Site

    • Chega de anúncios

    • Mais recursos no app do Afinador

    • Atendimento Prioritário

    • Aumente seu limite de lista

    • Ajude a produzir mais conteúdo

    Cifra Club Pro

    Aproveite o Cifra Club com benefícios exclusivos e sem anúncios
    Cifra Club Pro
    Aproveite o Cifra Club com benefícios exclusivos e sem anúncios
    OK