Cifra Club

Majora's Mask - Giant's theme

Zelda

Cifra: Principal (violão e guitarra)
Selo Cifra Club: esta cifra foi revisada para atender aos critérios oficiais da nossa Equipe de Qualidade.
tom: A
E |------------------------|--------------10----13----|
B |------------------------|--------10----------------|
G |------------------------|--10----------------------|
D |-------0----------12----|--------------------------|
A |------------12----------|--------------------------|
E |------------------------|--------------------------|

|-------------------------|--------------10----15-----|
|-------------------------|--------11-----------------|
|-------------------------|--12-----------------------|
|-------------------12----|---------------------------|
|-------------13----------|---------------------------|
|-------11----------------|---------------------------|

|-------------------------|--------------10----15----|-----------------------|
|-------------------------|--------11----------------|-----------------------|
|-------------------------|--12----------------------|-----------------------|
|-------------------12----|--------------------------|-----------------14----|
|-------------13----------|--------------------------|-------0---------------|
|-------12----------------|--------------------------|------------9----------|

|--------------12----15----|------------------------|--------------10----13----|
|--------14----------------|------------------------|--------10----------------|
|--12----------------------|------------------------|--10----------------------|
|--------------------------|-------0----------12----|--------------------------|
|--------------------------|------------12----------|--------------------------|
|--------------------------|------------------------|--------------------------|

|------------------------|--------------10----13----|------------------------|
|------------------------|--------10----------------|------------------------|
|------------------------|--10----------------------|------------------------|
|-------0----------12----|--------------------------|-------0----------12----|
|------------12----------|--------------------------|------------10----------|
|------------------------|--------------------------|------------------------|

|--------------10----15----|------------------------|--------------10----13----|
|--------12----------------|------------------------|--------10----------------|
|--12----------------------|------------------------|--10----------------------|
|--------------------------|-------0----------12----|--------------------------|
|--------------------------|------------12----------|--------------------------|
|--------------------------|------------------------|--------------------------|

|------------------------|--------------10----13----|-------------------------|
|------------------------|--------10----------------|-------------------------|
|------------------------|--10----------------------|-------------------------|
|-------0----------12----|--------------------------|-------------------11----|
|------------12----------|--------------------------|-------------10----------|
|------------------------|--------------------------|-------12----------------|

|--------------------15----|
|--------------14----------|
|--------12----------------|
|--14----------------------|
|--------------------------|
|--------------------------|

Outros vídeos desta música
1.107 exibições
    • ½ Tom
    • A
    • Bb
    • B
    • C
    • Db
    • D
    • Eb
    • E
    • F
    • F#
    • G
    • Ab
  • Adicionar à lista

Afinação da cifra

Afinador online

    0 comentários

    Ver todos os comentários

    Entre para o Cifra Club PRO

    Tenha acesso a benefícios exclusivos no App e no Site

    • Chega de anúncios

    • Mais recursos no app do Afinador

    • Atendimento Prioritário

    • Aumente seu limite de lista

    • Ajude a produzir mais conteúdo

    Cifra Club Pro

    Aproveite o Cifra Club com benefícios exclusivos e sem anúncios
    Cifra Club Pro
    Aproveite o Cifra Club com benefícios exclusivos e sem anúncios
    OK