Cifra Club

Phantom Hourglass - Linebeck's Theme

Zelda

Cifra: Principal (violão e guitarra)
Selo Cifra Club: esta cifra foi revisada para atender aos critérios oficiais da nossa Equipe de Qualidade.
tom: E
E |-----0--------------------|--0-----------2-----------|
B |--------4-----0--------0--|-----------0-----------0--|
G |-----------5-----2--0-----|--------0--0--------2--2--|
D |-----------------------4--|-----2--2--------1--1-----|
A |--2-----------------------|-----2--------2-----------|
E |--------------------------|--0-----------------------|

E |--3--5--7--3h5p3-0--------0--|-----5--7-----0----------|
B |-----0--0--------------2-----|--8--5--5--8--3-----3----|
G |-----0--0-----------0--0-----|--5--5--5--5--------4----|
D |--0-----------------2--------|-----------------4-------|
A |-----------------0-----------|--0-----------2----------|
E |-----------------------------|-------------------------|

E |--------0-----------------|--0-----------2-----------|
B |-----3--0--------------0--|-----------0-----------0--|
G |--4--4--------0-----0-----|--------0--0--------2--2--|
D |--4--0-----2--2--2--2-----|-----2--2--------1--1-----|
A |--2--------2-----2--------|-----2--------2-----------|
E |--------0-----------------|--0-----------------------|

E |---3--5--7--3h5p3-0--------0--|-----5--7-----0----------|
B |------0--0--------------2-----|--8--5--5--8--3-----3----|
G |------0--0-----------0--0-----|--5--5--5--5--------4----|
D |---0-----------------2--------|-----------------4-------|
A |------------------0-----------|--0-----------2----------|
E |------------------------------|-------------------------|

E |---------0--------------0--|--8--------8--10--8--7------|
B |------3--0-----------------|--------5---------7--7--10--|
G |---4--4--1-----1-----1-----|-----5--5---------7--7--7---|
D |---4--0-----2--2--2--2-----|-----7--------0-------------|
A |---2--------2-----2--------|--0-------------------------|
E |---------0-----------------|----------------------------|

E |---5-----3--5--7--------7--|--5--------3-----8--7--5--|
B |---------3--3--0-----------|--------6-----6--6--6--6--|
G |------4--4--4--------------|-----5--5--------5--5--5--|
D |------5-----------5--5-----|-----3--------------------|
A |------------------5--5-----|--0-----------0-----------|
E |---3-----------3-----------|--------------------------|

E |---7-----------------------|--8--------8--10--8h10p8-7------|
B |---8-----------8--8-----8--|--------5---------7------7--10--|
G |---------9--9--9--9--9-----|-----5--5---------7------7--7---|
D |------9--9--9--------9-----|-----7--------0-----------------|
A |------7--------------------|--0-----------------------------|
E |---0-----------------------|--------------------------------|

E |---5-----3--5--7-----6--7--|--8--------5--9--------12--|
B |---------3--3-----5--5--5--|-----5--5--------8--8------|
G |------4--4--4-----4--------|-----5--5--------9--9------|
D |------5--------------------|---------------------------|
A |---------------------------|--0-----------0------------|
E |---3-----------4-----------|---------------------------|

E |---11-----------------------|--0-----------2-----------|
B |-------7--7--------7--7--0--|-----------0-----------0--|
G |-------8--8--8--8--8--8-----|--------0--0--------2--2--|
D |-------------7--7-----------|-----2--2--------1--1-----|
A |----------------------------|-----2--------2-----------|
E |---7------------------------|--0-----------------------|

E |---3--5--7--3h5p3-0--------0--|-----5--7-----0----------|
B |------0--0--------------2-----|--8--5--5--8--3-----3----|
G |------0--0-----------0--0-----|--5--5--5--5--------4----|
D |---0-----------------2--------|-----------------4-------|
A |------------------0-----------|--0-----------2----------|
E |------------------------------|-------------------------|

E |---------0-----------------|--0-----------2-----------|
B |------3--0--------------0--|-----------0-----------0--|
G |---4--4--------0-----0-----|--------0--0--------2--2--|
D |---4--0-----2--2--2--2-----|-----2--2--------1--1-----|
A |---2--------2-----2--------|-----2--------2-----------|
E |---------0-----------------|--0-----------------------|

E |---3--5--7--3h5p3-0--------0--|-----5--7-----0----------|--------0---|
B |------0--0--------------2-----|--8--5--5--8--3-----3----|-----3--0---|
G |------0--0-----------0--0-----|--5--5--5--5--------4----|--4--4--0---|
D |---0-----------------2--------|-----------------4-------|--4--0------|
A |------------------0-----------|--0-----------2----------|--2---------|
E |------------------------------|-------------------------|--------0---|

Outros vídeos desta música
886 exibições
    • ½ Tom
    • A
    • Bb
    • B
    • C
    • Db
    • D
    • Eb
    • E
    • F
    • F#
    • G
    • Ab
  • Adicionar à lista

Afinação da cifra

Afinador online

    0 comentários

    Ver todos os comentários

    Entre para o Cifra Club PRO

    Tenha acesso a benefícios exclusivos no App e no Site

    • Chega de anúncios

    • Mais recursos no app do Afinador

    • Atendimento Prioritário

    • Aumente seu limite de lista

    • Ajude a produzir mais conteúdo

    Cifra Club Pro

    Aproveite o Cifra Club com benefícios exclusivos e sem anúncios
    Cifra Club Pro
    Aproveite o Cifra Club com benefícios exclusivos e sem anúncios
    OK