Cifra Club

Theme

Zelda

Cifra: Principal (violão e guitarra)
Selo Cifra Club: esta cifra foi revisada para atender aos critérios oficiais da nossa Equipe de Qualidade.
tom: Bb
     Bb5                          Ab5
E|-------------------------10-11-13--------------------|
B|--11-------11--11-11--13-----------------------------|
G|------10----------------------------------7-8--10----|
D|----------------------------------8--8-10------------|
A|-----------------------------------------------------|
E|-----------------------------------------------------|

     Gb5                          E5
E|-------------------------10-11-13--------------------|
B|--11-------11--11-11--13-----------------------------|
G|------10----------------------------------7-8--10----|
D|----------------------------------8--8-10------------|
A|-----------------------------------------------------|
E|-----------------------------------------------------|

     Bb5                          Ab5             Gb5
E|-------------------------10-11-13--13--14--16--18----|
B|--11-------11--11-11--13-----------------------------|
G|------10---------------------------------------------|
D|-----------------------------------------------------|
A|-----------------------------------------------------|
E|-----------------------------------------------------|

                 Db5              B5
E|--18--16------16-------------------------------------|
B|----------19------19--18---18--16--16-18-19----------|
G|-----------------------------------------------------|
D|-----------------------------------------------------|
A|-----------------------------------------------------|
E|-----------------------------------------------------|

             Bb5                   C5
E|-----------------------------------------------------|
B|--18--16--14-14-16-18---16--14--13--13--15--17-------|
G|-----------------------------------------------------|
D|-----------------------------------------------------|
A|-----------------------------------------------------|
E|-----------------------------------------------------|

          F5
E|--15---13--------------------------------------------|
B|-----------------------------------------------------|
G|------------10-10-10--10-10-10--10-10-10--10-10-10---
D|-----------------------------------------------------|
A|-----------------------------------------------------|
E|-----------------------------------------------------|

     Bb5                          Ab5             Gb5
E|-------------------------10-11-13--13--14--16--18----|
B|--11-------11--11-11--13-----------------------------|
G|------10---------------------------------------------|
D|-----------------------------------------------------|
A|-----------------------------------------------------|
E|-----------------------------------------------------|

E|---21--20--17----------17--16---------------17--16------|
B|---------------17--18----------17---17--18----------17--|
G|--------------------------------------------------------|
D|--------------------------------------------------------|
A|--------------------------------------------------------|
E|--------------------------------------------------------|

E|-----------14--13--------------------12--15--13----------------------------------|
B|---14--15---------13----11-11-11--13---------------------------------------------|
G|--------------------------------------------------10-10-10--10-10-10--10-10-10--10-10-10
D|---------------------------------------------------------------------------------|
A|---------------------------------------------------------------------------------|
E|---------------------------------------------------------------------------------|
Outros vídeos desta música
20.174 exibições
    • ½ Tom
    • A
    • Bb
    • B
    • C
    • Db
    • D
    • Eb
    • E
    • F
    • F#
    • G
    • Ab
  • Adicionar à lista

Afinação da cifra

Afinador online

    0 comentários

    Ver todos os comentários

    Entre para o Cifra Club PRO

    Tenha acesso a benefícios exclusivos no App e no Site

    • Chega de anúncios

    • Mais recursos no app do Afinador

    • Atendimento Prioritário

    • Aumente seu limite de lista

    • Ajude a produzir mais conteúdo

    Cifra Club Pro

    Aproveite o Cifra Club com benefícios exclusivos e sem anúncios
    Cifra Club Pro
    Aproveite o Cifra Club com benefícios exclusivos e sem anúncios
    OK