Cifra Club

Title Theme (The Wind Waker)

Zelda

Cifra: Principal (violão e guitarra)
Selo Cifra Club: esta cifra foi revisada para atender aos critérios oficiais da nossa Equipe de Qualidade.
tom: A
[Intro]

E|-8~~~10~~~8~~~-----|
B|-8~~~10~~~8~~~-8~~~|
G|-9~~~-9~~~9~~~-9~~~|
D|--------------10~~~|
A|-------------------|
E|-------------------|

E|-------2-0------------------------------0-2--0--|
B|-----3-----3-2-3-0---2-3-0-2----3-0-2-3----3----|
G|-2-2---------------0--2-----2-0-----------------|
D|------------------------------------------------|
A|------------------------------------------------|
E|------------------------------------------------|

E|-------2-0--------------------0-2-3-0------|
B|-----3----3-2-3-0--2--3-0-2-3--------2-3-3-|
G|-2-2-------------0--2----------------------| (2x)
D|-------------------------------------------|
A|-------------------------------------------|
E|-------------------------------------------|

E|------------------------------------------------------------------|
B|-10-10---------------------10---------------------10-12-12--------|
G|------12-11-9-11~---------9-------12-----11~11-12----------12-9---|
D|-----------------12-11-12----12-12--12-12-------------------------|
A|------------------------------------------------------------------|
E|------------------------------------------------------------------|

E|------------------------------------------------------|
B|-10-10-------------------------------10---------------|
G|-------12-11---9-11-9-9-9~--------9-9--9---12------11~|
D|------------12-----------12-11-12--------11--12-12----|
A|------------------------------------------------------|
E|------------------------------------------------------|

E|--------------------------------------|
B|-----------------10-12----------------|
G|-11-9--9-------12-----11--11-9~9-11-9-|
D|-----11-12-9-12---------12------------|
A|--------------------------------------|
E|--------------------------------------|

E|----------------------------------------------------|
B|-10-10-------------------10~-----------10-12-12-----|
G|------12-11-9-11--------9---12-11~11-12--------12-9-|
D|----------------12-11-12----------------------------|
A|----------------------------------------------------|
E|----------------------------------------------------|

E|-----------------------------------------------------|
B|-10-10-----------------------------10----------------|
G|------12-11---9-11-9-9~--------9~9~---9---12------11~|
D|------------12---------12-11-12--------11----12-12---|
A|-----------------------------------------------------|
E|-----------------------------------------------------|

E|-------------------------------------------|
B|------------------10-12------------10------|
G|-11--9--9-------12-----11---11-9~9~--------|
D|------11-12-9-12---------12----------------|
A|-------------------------------------12~12~|
E|-------------------------------------------|
00:00 / 00:00
Outros vídeos desta música
Repetir
Outros vídeos desta música
681 exibições
    • ½ Tom
    • A
    • Bb
    • B
    • C
    • Db
    • D
    • Eb
    • E
    • F
    • F#
    • G
    • Ab
  • Adicionar à lista

Afinação da cifra

Afinador online

    0 comentários

    Ver todos os comentários

    Entre para o Cifra Club PRO

    Tenha acesso a benefícios exclusivos no App e no Site

    • Chega de anúncios

    • Mais recursos no app do Afinador

    • Atendimento Prioritário

    • Aumente seu limite de lista

    • Ajude a produzir mais conteúdo

    00:00 / 00:00

    Cifra Club Pro

    Aproveite o Cifra Club com benefícios exclusivos e sem anúncios
    Cifra Club Pro
    Aproveite o Cifra Club com benefícios exclusivos e sem anúncios
    OK