Cifra Club

Zelda 1: Ending

Zelda

Cifra: Principal (violão e guitarra)
Selo Cifra Club: esta cifra foi revisada para atender aos critérios oficiais da nossa Equipe de Qualidade.
tom: C
E|---3-----------------7-----5--------5--3--------0---------------------------
B|------------5--4-----------------5-----------3------------------------------
G|---------5--------------4-----5-----------5---------------------------------
D|------5-----------5---------------------------------------------------------
A|----------------------------------------------------------------------------
E|----------------------------------------------------------------------------

E|---5--------5--4------------------------------------------------------------
B|---------6--------------6--5--------5--3-----0--3---------------------------
G|------5-----------5--7-----------5--------2---------------------------------
D|------------------------------5---------------------------------------------
A|----------------------------------------------------------------------------
E|----------------------------------------------------------------------------

00:00 / 00:00
Outros vídeos desta música
Repetir
Outros vídeos desta música
476 exibições
    • ½ Tom
    • A
    • Bb
    • B
    • C
    • Db
    • D
    • Eb
    • E
    • F
    • F#
    • G
    • Ab
  • Adicionar à lista

Afinação da cifra

Afinador online

    0 comentários

    Ver todos os comentários

    Entre para o Cifra Club PRO

    Tenha acesso a benefícios exclusivos no App e no Site

    • Chega de anúncios

    • Mais recursos no app do Afinador

    • Atendimento Prioritário

    • Aumente seu limite de lista

    • Ajude a produzir mais conteúdo

    00:00 / 00:00

    Cifra Club Pro

    Aproveite o Cifra Club com benefícios exclusivos e sem anúncios
    Cifra Club Pro
    Aproveite o Cifra Club com benefícios exclusivos e sem anúncios
    OK