Cifra Club

Zelda 1 - Tela de Save

Zelda

Cifra: Principal (violão e guitarra)
Selo Cifra Club: esta cifra foi revisada para atender aos critérios oficiais da nossa Equipe de Qualidade.
tom: C
Afinação - EADGBe

Tabs 1
|--3--------0--------7-----5-----0--5--3--------0--|
|--------1-----4--------0-----1-----------1--3-----|
|-----0-----------0--------------------------------|
|--------------------------------------------------|
|--------------------------------------------------|
|--------------------------------------------------|

|--5-----1--5--4-----3--1--0--------0--------------|
|-----1-----------1--------------1-----3-----0--3--|
|-----------------------------0-----------2--------|
|--------------------------------------------------|
|--------------------------------------------------|
|--------------------------------------------------|

Repete por muito tempo...

Tabs 2
|--3--------0--------7-----5-----0--5--3--------0--|
|--------1-----4--------0--------------------3-----|
|-----0-----------0-----------5-----------5--------|
|--------------------------------------------------|
|--------------------------------------------------|
|--------------------------------------------------|

|--5--------5--4-----3-----0--------0--------------|
|--------6--------------6--------------3-----0--3--|
|-----5-----------5-----------0--5--------2--------|
|--------------------------------------------------|
|--------------------------------------------------|
|--------------------------------------------------|
Outros vídeos desta música
1.590 exibições
    • ½ Tom
    • A
    • Bb
    • B
    • C
    • Db
    • D
    • Eb
    • E
    • F
    • F#
    • G
    • Ab
  • Adicionar à lista

Afinação da cifra

Afinador online

    0 comentários

    Ver todos os comentários

    Entre para o Cifra Club PRO

    Tenha acesso a benefícios exclusivos no App e no Site

    • Chega de anúncios

    • Mais recursos no app do Afinador

    • Atendimento Prioritário

    • Aumente seu limite de lista

    • Ajude a produzir mais conteúdo

    Cifra Club Pro

    Aproveite o Cifra Club com benefícios exclusivos e sem anúncios
    Cifra Club Pro
    Aproveite o Cifra Club com benefícios exclusivos e sem anúncios
    OK