Cifra Club

Zelda Theme

Zelda

Cifra: Principal (violão e guitarra)
Selo Cifra Club: esta cifra foi revisada para atender aos critérios oficiais da nossa Equipe de Qualidade.
tom: C
E|-----------------------------5-3------------|
B|-0-3-------0----3------0---3-----3--1--0----|
G|-----2-0-2--------2----------------------2--| (2x)
D|--------------------------------------------|
A|--------------------------------------------|
E|--------------------------------------------|

E|-5--3--2--3--2---3--2--0--2--0---5--5-------|
B|---------------5---------------3------------|
G|-2--2--2--2--2---2--2--2-----2---2--2-------|
D|--------------------------------------------|
A|--------------------------------------------|
E|--------------------------------------------|

Outros vídeos desta música
64.435 exibições
    • ½ Tom
    • A
    • Bb
    • B
    • C
    • Db
    • D
    • Eb
    • E
    • F
    • F#
    • G
    • Ab
  • Adicionar à lista

Afinação da cifra

Afinador online

    0 comentários

    Ver todos os comentários

    Entre para o Cifra Club PRO

    Tenha acesso a benefícios exclusivos no App e no Site

    • Chega de anúncios

    • Mais recursos no app do Afinador

    • Atendimento Prioritário

    • Aumente seu limite de lista

    • Ajude a produzir mais conteúdo

    Cifra Club Pro

    Aproveite o Cifra Club com benefícios exclusivos e sem anúncios
    Cifra Club Pro
    Aproveite o Cifra Club com benefícios exclusivos e sem anúncios
    OK