Cifra Club

Zelda's lullaby

Zelda

Cifra: Principal (violão e guitarra)
Selo Cifra Club: esta cifra foi revisada para atender aos critérios oficiais da nossa Equipe de Qualidade.
tom: D
E |----------0--------2--------0---------2----------5---------3--------3--------2-|
B |--------------------------------------------3----------------------------------|
G |------0--------2--------0---------2--------------------3---------2--------2----|
D |-----------------------------------------------------------------------0-------|
A |---3--------3--------3--------3--------2------------1---------0----------------|
E |-------------------------------------------------------------------------------|

E |-7-----10--5--------3--5--7--------10--3----------7--------10---17---------15--|
B |-------------------------------------------------------------------------------|
G |---0----------2--------------0------------2----------7-------------------------|
D |--------------------------------------------------------------------15---------|
A |----------------------------------------------------------------13------13-----|
E |-8---8-----3-----3--------8-----8------5------3---7-----7----------------------|

E |-10--------8--7----------------------------------------------------------------|
B |--------8-------------7---0--------3-----------------0--------3----------------|
G |-----7-------------7------------------2--------0--2--------------2-------------|
D |----------------0------------2-----------4--------------2-----------4----------|
A |-0------------------------3-----3-----------3--------3-----3-----------3-------|
E |-------------------------------------------------------------------------------|

E |-------------5--------3--10-----------------------10------8--7-----8--7--------|
B |-0-------3------3---------------8------------7---------------------------8-----|
G |----0------------------------7------------7----------7-------------------------|
D |---------------------------------------0----------8-----8----------7-----------|
A |-2----2------1-----1-----0-----------------------------------------------------|
E |-------------------------------------------------------------------------------|

E |-8--------7---5--7--5--0--10--------8--7--8--7-----8--15----------------------8------------10-|
B |------------------------------------------------8--------------------------10-----------12----|
G |----------------------------------------------------------12-------------10----------12-------|
D |-0-----0----------------------7-----------------------13------13-------10----------12---------|
A |----8-----3---------------8------8--------7-------------------------8-----------10------------|
E |----------------------------------------------------------------------------------------------|

E |-7-----10--5--------3--5--7--------10--3----------7--------10---17---------15--|
B |-------------------------------------------------------------------------------|
G |---0----------2--------------0------------2----------7-------------------------|
D |--------------------------------------------------------------------15---------|
A |----------------------------------------------------------------13------13-----|
E |-8---8-----3-----3--------8-----8------5------3---7-----7----------------------|

E |-10--------8--7----------------------------------------------------------------|
B |--------8-------------7---0--------3-----------------0--------3----------------|
G |-----7-------------7------------------2--------0--2--------------2-------------|
D |----------------0------------2-----------4--------------2-----------4----------|
A |-0------------------------3-----3-----------3--------3-----3-----------3-------|
E |-------------------------------------------------------------------------------|

E |-------------5--------3--10-----------------------10------8--7-----8--7--------|
B |-0-------3------3---------------8------------7---------------------------8-----|
G |----0------------------------7------------7----------7-------------------------|
D |---------------------------------------0----------8-----8----------7-----------|
A |-2----2------1-----1-----0-----------------------------------------------------|
E |-------------------------------------------------------------------------------|

E |-8--------7---5--7--5--0--10--------8--7--8--7-----8--15----------------------8------------10-|
B |------------------------------------------------8--------------------------10-----------12----|
G |----------------------------------------------------------12-------------10----------12-------|
D |-0-----0----------------------7-----------------------13------13-------10----------12---------|
A |----8-----3---------------8------8--------7-------------------------8-----------10------------|
E |----------------------------------------------------------------------------------------------|

00:00 / 00:00
Outros vídeos desta música
Repetir
Outros vídeos desta música
61.321 exibições
    • ½ Tom
    • A
    • Bb
    • B
    • C
    • Db
    • D
    • Eb
    • E
    • F
    • F#
    • G
    • Ab
  • Adicionar à lista

Afinação da cifra

Afinador online

    0 comentários

    Ver todos os comentários

    Entre para o Cifra Club PRO

    Tenha acesso a benefícios exclusivos no App e no Site

    • Chega de anúncios

    • Mais recursos no app do Afinador

    • Atendimento Prioritário

    • Aumente seu limite de lista

    • Ajude a produzir mais conteúdo

    00:00 / 00:00

    Cifra Club Pro

    Aproveite o Cifra Club com benefícios exclusivos e sem anúncios
    Cifra Club Pro
    Aproveite o Cifra Club com benefícios exclusivos e sem anúncios
    OK