Cifra Club

Aprenda

Carne e Osso

Zélia Duncan

Cifra: Principal (violão e guitarra)
tom: E
(Versão acústica)
E|-----------------------------------|
B|-----------------------------------|
G|-----------------------------------|
D|-----------------------------------|
A|------/4--x-2--------/4----2-------|
E|-0--x-----------0--x---------4--2--|

 (Versão Normal)
E|-------------------------------|
B|-------------------------------|
G|-------6----4---------6----4---|
D|-------6----4---------6----4---|
A|-------4--x-2---------4--x-2---|
E|-0--x-----------0--x-----------|

E6(9)
A alegria do pecado às vezes toma conta de mim
A7M                   Am6    E6(9)
E é tão bom não ser divi.....na
F#7/4
Me cobrir de humanidade me fascina
A6               E6(9)
E me aproxima do céu
E6(9)
E eu gosto de estar na terra cada vez mais
      A6               Am6    E6(9)
Minha boca se abre e espe.....ra
F#7/4
O direito ainda que profano
A6                        E6(9)
Do mundo ser sempre mais humano
     C7M                      E6(9)
Perfeição demais me agita os instintos
F#7/4
Quem se diz muito perfeito
     A6                        C#m7
Na certa encontrou um jeito, insosso
C#m7/B               F#/A#
Pra não ser de carne e osso
A6                      E6(9)
Pra não ser.... carne e osso
Composição de Moska / Zélia Duncan
Colaboração e revisão:
52.891 exibições
    • ½ Tom
    • A
    • Bb
    • B
    • C
    • Db
    • D
    • Eb
    • E
    • F
    • F#
    • G
    • Ab
  • Adicionar à lista

    0 comentários

    Ver todos os comentários

    Conseguiu tocar?

    1 Tocaram 1 Ainda não

    Grave um vídeo tocando Carne e Osso e nos envie!

    00:00 / 00:00
    Outros vídeos desta música
    Repetir Qualidade Automático
    Outros vídeos desta música
    00:00 / 00:00
    Automático

    Cifra Club Pro

    Aproveite o Cifra Club com benefícios exclusivos e sem anúncios
    Cifra Club Pro
    Aproveite o Cifra Club com benefícios exclusivos e sem anúncios
    OK