Cifra Club

Capela

Zico e Zeca

Cifra: Principal (violão e guitarra)
Selo Cifra Club: esta cifra foi revisada para atender aos critérios oficiais da nossa Equipe de Qualidade.
tom: Em
[Tab - Início]

Parte 1 de 6
E|-0-0-0-0------0-3-2----2-5-3--------------|
B|-------------0----------3----------5------|
G|------------------------------------------|
D|------------------------------------------|
A|------------------------------------------|
E|------------------------------------------|

Parte 2 de 6
E|-3-7-5------5-8-7------7-10-13-12-10------|
B|----------7------------8------------------|
G|------------------------------------------|
D|------------------------------------------|
A|------------------------------------------|
E|------------------------------------------|

Parte 3 de 6
E|-12-10h12p10-------10h12------------------|
B|---------------------13-------------------|
G|------------------------------------------|
D|------------------------------------------|
A|------------------------------------------|
E|------------------------------------------|

Parte 4 de 6
E|-12-12-12-12--------------------------12--|
B|-------------------13-10-------10-13------|
G|----------------------------11------------|
D|------------------------------------------|
A|------------------------------------------|
E|------------------------------------------|

Parte 5 de 6
E|------------------------------------------|
B|-12--------------12-13--------------------|
G|------12-9-12-----------------------------|
D|------------------------------------------|
A|------------------------------------------|
E|------------------------------------------|

Parte 6 de 6
E|----------12-11-------11-14-12------------|
B|-10-13-----------12-----------------------|
G|------------------------------------------|
D|------------------------------------------|
A|------------------------------------------|
E|------------------------------------------|

[Intro] Em  Bm  Em  Bm  E7  Am
        D7  G  Em  F#7  B7  Em

         Em            B7
Na minha vila tem uma capela

Muito bela e dentro dela
        E7
Tem um morador
       Am      D7        G   Em
É um anjo de braços abertos
        F#7      B7    Em
E esse anjo é nosso senhor
        Em             B7
E perto dela tem uma favela

Onde mora a minha bela
             E7
Meu primeiro amor
         Am          D7        G
E aos domingos vou nessa capela
      Em             F#7          B7   Em
Faço prece, acendo vela e peço por favor
        Am           D7        G
E aos domingos vou nessa capela
      Em             F#7          B7   Em
Faço prece, acendo vela e peço por favor
           D7                   G
Meu Deus do céu, me dê essa donzela
               Am              Em
Porque somente ela eu aprendi amar
         Am           D7            G
Eu gosto dela, quero me casar com ela
     Em         F#7          B7    Em
Um dia nessa capela onde eu vou rezar
         Am           D7            G
Eu gosto dela, quero me casar com ela
     Em         F#7          B7    Em
Um dia nessa capela onde eu vou rezar

[Tab - Final]

Parte 1 de 6
E|-0-0-0-0------0-3-2----2-5-3--------------|
B|-------------0----------3----------5------|
G|------------------------------------------|
D|------------------------------------------|
A|------------------------------------------|
E|------------------------------------------|

Parte 2 de 6
E|-3-7-5------5-8-7------7-10-13-12-10------|
B|----------7------------8------------------|
G|------------------------------------------|
D|------------------------------------------|
A|------------------------------------------|
E|------------------------------------------|

Parte 3 de 6
E|-12-10h12p10-------10h12------------------|
B|---------------------13-------------------|
G|------------------------------------------|
D|------------------------------------------|
A|------------------------------------------|
E|------------------------------------------|

Parte 4 de 6
E|-12-12-12-12--------------------------12--|
B|-------------------13-10-------10-13------|
G|----------------------------11------------|
D|------------------------------------------|
A|------------------------------------------|
E|------------------------------------------|

Parte 5 de 6
E|------------------------------------------|
B|-12--------------12-13--------------------|
G|------12-9-12-----------------------------|
D|------------------------------------------|
A|------------------------------------------|
E|------------------------------------------|

Parte 6 de 6
E|----------12-11-------11-14-12------------|
B|-10-13-----------12-----------------------|
G|------------------------------------------|
D|------------------------------------------|
A|------------------------------------------|
E|------------------------------------------|

Outros vídeos desta música
    47 exibições
      • ½ Tom
      • Am
      • Bbm
      • Bm
      • Cm
      • C#m
      • Dm
      • Ebm
      • Em
      • Fm
      • F#m
      • Gm
      • G#m
    • Adicionar à lista

    Afinação da cifra

    Afinador online

      0 comentários

      Ver todos os comentários

      Entre para o Cifra Club PRO

      Tenha acesso a benefícios exclusivos no App e no Site

      • Chega de anúncios

      • Badges exclusivas

      • Mais recursos no app do Afinador

      • Atendimento Prioritário

      • Aumente seu limite de lista

      • Ajude a produzir mais conteúdo

      Cifra Club Pro

      Aproveite o Cifra Club com benefícios exclusivos e sem anúncios
      Cifra Club Pro
      Aproveite o Cifra Club com benefícios exclusivos e sem anúncios
      Ops (: Contenido disponible sólo en portugués.
      OK