Cifra Club

1937

Zimbra

Cifra: Principal (violão e guitarra)
tom: A
Intro: A D (3x)

E|------------------------------------|
B|-----10---9-----10------9---7-------|
G|---9----9---9------9------9---9---9-|7x
D|-7------------7------7----------7---|
A|------------------------------------|
E|------------------------------------|

E|------------------------|
B|-10-10-10-10-10-10-10---|
G|-9--9--9--9--9--9--9----|
D|-7--7--7--7--7--7--7----|
A|------------------------|
E|------------------------|

E|-------------------------------------|
B|-10-10-10-10-10-10-10-9-9-9-10-10-9-9|
G|-9--9--9--9--9--9--9--9-9-9-9--9--9-9|4x
D|-7--7--7--7--7--7--7--7-7-7-7--7--7-7|
A|-------------------------------------|
E|-------------------------------------|

A
Não temos muito mais que pouco tempo
Sempre tivemos paz em bons momentos
D
E nunca ouve muito do que reclamar
                              E
Eu demorei a vida inteira pra enxergar
A
Nunca pensei em nada do que eu disse
Nunca me preocupei com quem eu visse
D
Eu costumava ter as mãos pra me ajudar
E
Eu costumava tem mais força pra tentar

D             E             F#m
Poucas fotos mil historias lembro de como eu era,
D            E              F#m        C#m
Pessoas que eu nem vejo e dizem ser amigos,
D          E               E5/F        F#m
Talvez eu não me lembre de tanta coisa assim,
     E
Mas eu só quero ver o mar, hoje eu só quero ver o mar
A                D
Pra eu acordar feliz,
E               C#m              F#m
E assim eu não lembrar mais de ninguém
E       D          E
Talvez eu viva bem melhor
        A          D        E              C#m    F#m
Eu sei também que não há muito mais pra se fazer aqui
E      D         E
Assim talvez eu viva bem melhor.

Riff 2
E|--------------------------------------|
B|--------------------------------------|
G|--------------------------------------|
D|7-7-9-9-11-11-9-7-7\------------------|
A|------------------7\------------------|
E|5-5-7-7-9--9--7-5-5\------------------|

A
Poder sorrir quando eu bem quiser,
                                   D
Não vou chorar quando eu não tiver mais chance de fazer alguém me escutar
                       Riff 3
Tem tanta coisa pra se mostrar.

Riff 3
E|--------------------------|
B|--------------------------|
G|9--7-6~-------------------|
D|--------------------------|
A|7--5-4~-------------------|
E|--------------------------|

A
Saber falar, mas saber ouvir,
Lembrar de tudo que eu consegui
D                                         E
Não há mais tempo pra poder te esperar tem tanta coisa pra se mostrar.

D             E             F#m
Poucas fotos mil historias lembro de como eu era,
D            E              F#m        C#m
Pessoas que eu nem vejo e dizem ser amigos,
D          E                E5/F        F#m
Talvez eu não me lembre de tanta coisa assim,
     E
Mas eu só quero ver o mar, hoje eu só quero ver o mar
A              D
Pra eu acordar feliz,
E               C#m              F#m
E assim eu não lembrar mais de ninguém
E        D          E
Talvez eu viva bem melhor
        A          D        E              C#m    F#m
Eu sei também que não há muito mais pra se fazer aqui
E      D         E
Assim talvez eu viva bem melhor.

( A A5/G# D E F#m E D )
Riff 4

Riff 4
E|------------------|
B|-10-----9---------|
G|----9-----9-------|
D|------7-----7-----|
A|------------------|
E|------------------|

E|--------------------|
B|-10----9--9--9------|
G|---9----9--9--9-----|2x
D|----7----7--7-------|
A|--------------------|
E|--------------------|

E|-----------------------------|
B|10----10-10-10-10-10-10-10-10|
G|--9---9--9--9--9--9--9--9--9-|
D|---7--7--7--7--7--7--7--7--7-|
A|-----------------------------|
E|-----------------------------|

A                 A5/G#
Mas hoje o tempo me dirá quem sou
D                   E
Se existi tanta chance pra lutar
F#m               E                   D                  E
Boto um sorriso torto em minha cara sempre foi à mesma nunca vai mudar
A                    A5/G#
E eu nunca estive tão longe daqui
D                      E
E nunca quis estar em outro lugar
F#m               E                   D                E          D
Boto um sorriso torto em minha cara sempre foi à mesma nunca vai mudar.
00:00 / 00:00
Outros vídeos desta música
Repetir
Outros vídeos desta música
Composição de Rafael Costa
Colaboração e revisão:
  • Antonio Augusto
  • Dean Barker
5.801 exibições
    • ½ Tom
    • A
    • Bb
    • B
    • C
    • Db
    • D
    • Eb
    • E
    • F
    • F#
    • G
    • Ab
  • Adicionar à lista

    0 comentários

    Ver todos os comentários

    Conseguiu tocar?

    4 Tocaram 2 Ainda não

    Grave um vídeo tocando 1937 e nos envie!

    Entre para oCifra Club PRO

    Tenha acesso a benefícios exclusivos no App e no Site

    • Chega de anúncios

    • Prioridade de compra em lançamentos

    • Mais recursos no app do Afinador

    • Atendimento Prioritário

    • Descontos nos produtos Cifra Club

    • Ajude a produzir mais conteúdo

    00:00 / 00:00

    Cifra Club Pro

    Aproveite o Cifra Club com benefícios exclusivos e sem anúncios
    Cifra Club Pro
    Aproveite o Cifra Club com benefícios exclusivos e sem anúncios
    OK