Cifra Club

Aprenda

Já Sei

Zimbra

Cifra: Principal (violão e guitarra)
tom: A
[Intro] D7M  G#º  F#m
        A  D7M  C#7  D7M

E|--------------------------------10p9-----|
B|------------------------------------10---|
G|--6--4/7-6--4/6-----------------------9--|
D|----------------7--6~-3/7~---------------|
A|-----------------------------------------|
E|-----------------------------------------|

 A     A7M      ( D7M )
Sentir por não te conhecer
 A     A7M     ( D7M )
Deixar por não querer parar
 A     A7M     ( D7M )
Falar por não saber agir
 A    A7M     ( D7M )
Rezar pra ver você voltar

   ( D7M )

E|-----10p9----------------|
B|----------10-------------|
G|-------------9-----------|
D|-------------------------|
A|-------------------------|
E|-------------------------|

( A  G#° )

       D7M
Tá bom, eu já sei
   A             G#º            D7M
Já sei que as coisas não estão como a gente pensou
 A           G#º           D7M
Mas dá ou não dá pra fingir que isso tudo é amor
  A          G#º        D7M
Você me engana tão bem eu finjo que acredito
  A          G#º
Eu gosto de mentir também, eu só não admito

D7M  C#7  F#m  A (3x)
A  D7M  C#7
( D7M ) (4x)

E|--------------------------------------------------------------------|
B|--------------------------------------------------------------------|
G|-09/11-11-11-X-X-11/13-13-13-X-X-13/14-14-14-X-X-16/18-16/18-16/18~-|
D|--------------------------------------------------------------------|
A|-07/09-09-09-X-X-09/11-11-11-X-X-11/12-12-12-X-X-14/16-14/16-14/16~-|
E|--------------------------------------------------------------------|

E|------------------------------------------------------------|
B|------------------------------------------------------------|
G|-09/11-11-11-X-X-10-10-10-X-X----------------16-16--16\14---|
D|------------------------------11-11-11-X-X-X----------------|
A|-07/09-09-09-X-X-08-08-08-X-X----------------14-14--14\12---|
E|------------------------------09-09-09-X-X-X----------------|

E|--------------------------------------------------------------|
B|--------------------------------------------------------------|
G|-09/11-11-11-X-X-11/13-13-13-X-X-13/14-14-14-X-X-16/18-16/18~-|
D|--------------------------------------------------------------|
A|-07/09-09-09-X-X-09/11-11-11-X-X-11/12-12-12-X-X-14/16-14/16~-|
E|--------------------------------------------------------------|

E|----------------------------|
B|----------------------------|
G|-09/11-11-11-X-X-10-10-10~--|
D|----------------------------|
A|-07/09-09-09-X-X-08-08-08~--|
E|----------------------------|

( D7M )

E|-----------------|
B|-----------------|
G|-----------------|
D|-11-12-----------|
A|-------12----12--|
E|----------14-----|

 A      A7M    ( D7M )
Correr por não saber andar
 A      A7M     ( D7M )
Ter pressa em te reconhecer
 A       A7M      ( D7M )
Não sei porque é que isso me dá
 A     A7M   ( D7M )
Me dá tanto medo de você

   ( D7M )

E|-----10p9-------------|
B|----------10----------|
G|-------------9--------|
D|----------------------|
A|----------------------|
E|----------------------|

( A  G#° )

      D7M
Tá bom, eu já sei
   A             G#º            D7M
Já sei que as coisas não estão como a gente pensou
 A           G#º           D7M
Mas dá ou não dá pra fingir que isso tudo é amor
  A          G#º        D7M
Você me engana tão bem eu finjo que acredito
  A          G#º
Eu gosto de mentir também, eu só não admito

( D7M  C#7  F#m  A )
( D7M  C#7  F#m  A )
( D7M  C#7  F#m  A )
( A  D7M  C#7 )
( D7M ) 

E|--------------------------------------------------------------------|
B|--------------------------------------------------------------------|
G|-09/11-11-11-X-X-11/13-13-13-X-X-13/14-14-14-X-X-16/18-16/18-16/18~-|
D|--------------------------------------------------------------------|
A|-07/09-09-09-X-X-09/11-11-11-X-X-11/12-12-12-X-X-14/16-14/16-14/16~-|
E|--------------------------------------------------------------------|

E|------------------------------------------------------------|
B|------------------------------------------------------------|
G|-09/11-11-11-X-X-10-10-10-X-X----------------16-16--16\14---|
D|------------------------------11-11-11-X-X-X----------------|
A|-07/09-09-09-X-X-08-08-08-X-X----------------14-14--14\12---|
E|------------------------------09-09-09-X-X-X----------------|

E|--------------------------------------------------------------|
B|--------------------------------------------------------------|
G|-09/11-11-11-X-X-11/13-13-13-X-X-13/14-14-14-X-X-16/18-16/18~-|
D|--------------------------------------------------------------|
A|-07/09-09-09-X-X-09/11-11-11-X-X-11/12-12-12-X-X-14/16-14/16~-|
E|--------------------------------------------------------------|

E|----------------------------|
B|----------------------------|
G|-09/11-11-11-X-X-10-10-10~--|
D|----------------------------|
A|-07/09-09-09-X-X-08-08-08~--|
E|----------------------------|

   ( D7M ) 8x

E|-----------------|
B|-----------------|
G|-----------------|
D|-11-12-----------|
A|-------12----12--|
E|----------14-----|
Composição de Rafael Costa
Colaboração e revisão:
68.531 exibições
  • Simplificar cifra
    • ½ Tom
    • A
    • Bb
    • B
    • C
    • Db
    • D
    • Eb
    • E
    • F
    • F#
    • G
    • Ab
  • Adicionar à lista

    0 comentários

    Ver todos os comentários

    Conseguiu tocar?

    30 Tocaram 4 Ainda não

    Grave um vídeo tocando Já Sei e nos envie!

    00:00 / 00:00
    outros vídeos desta música
    repetir qualidade Automático
    Outros vídeos desta música
    00:00 / 00:00
    Automático

    Cifra Club Pro

    Aproveite o Cifra Club com benefícios exclusivos e sem anúncios
    Cifra Club Pro
    Aproveite o Cifra Club com benefícios exclusivos e sem anúncios
    OK