Cifra Club

Lua Cheia

Zimbra

Cifra: Principal (violão e guitarra)
Selo Cifra Club: esta cifra foi revisada para atender aos critérios oficiais da nossa Equipe de Qualidade.
tom: Ab
[Intro] Fm  Cm  Db7M  

[Primeira Parte]

Fm
Me diga que não vai embora
Fm
Se for me leva com você
Fm
É claro que eu não tenho hora
Fm
O tempo que anda agora
Fm
É falta de querer dizer
Bb
Tá tão feliz quem tem um pouco
Bb
E sabe como se entender
Fm
A escuridão parece pouco
Fm
Parece pouco pra você

[Refrão]

Db7M                      Fm  Eb
Lua cheia    faz meu dia nascer
Db7M                          Fm  Eb
Fica à vontade,    eu tô aqui pra te ver
Db7M                     
Espero tanto pra te ouvir

[Verso]

Fm
Me diga que não vai embora
Fm
Se for me leva com você
Fm
É claro que eu não tenho hora
Fm
O tempo que anda agora
Fm
É falta de querer dizer
Bb
Tá tão feliz quem tem um pouco
Bb
E sabe como se entender
Fm
A escuridão parece pouco
Fm
Parece pouco pra você

[Refrão]

Db7M                      Fm  Eb
Lua cheia    faz meu dia nascer
Db7M                          Fm  Eb
Fica à vontade,    eu tô aqui pra te ver
Db7M                     
Espero tanto pra te ouvir

[Ponte]

Db7M                    Fm
Acesa é bem mais que o Sol
                Db7M
e muito me encanta
                     Fm
Não sabe dançar, eu sei
              Db7M
A gente só canta
               Fm              
Espera pra ver se vai poder me ajudar

Depois de tanto tempo longe sem brilhar

[Solo]

E|-------------------------------------------------|
B|-------------------------------------------------|
G|-/8---10---12--12b13r---10h12p10-----------------|
D|-------------------------------------------------|
A|-------------------------------------------------|
E|-------------------------------------------------|

E|-------------------------------------------------|
B|-------------------------------------------------|
G|-10/---17--15--13--10----12b13-------------------|
D|-------------------------------------------------|
A|-------------------------------------------------|
E|-------------------------------------------------|

E|---------------------------------------------------------------|
B|---------------------------------------------------------------|
G|-15b16r-14-------14--15b16r-14--------14-15b16r-14-------------|
D|------------15--------------------15---------------------------|
A|---------------------------------------------------------------|
E|---------------------------------------------------------------|

E|--13--11------11---------------------------------|
B|----------13----------11--13--11-----------------|
G|-------------------------------------------------|
D|-------------------------------------------------|
A|-------------------------------------------------|
E|-------------------------------------------------|

E|-------------------------------------------------|
B|------11----11--12-------------------------------|
G|--13---------------------13--10------------------|
D|-------------------------------------------------|
A|-------------------------------------------------|
E|-------------------------------------------------|

E|---------------------------------------------------------------|
B|------9-11--11b12r11--9----9h11--------------------------------|
G|--/10-------------------10-------------------------------------|
D|---------------------------------------------------------------|
A|---------------------------------------------------------------|
E|---------------------------------------------------------------|

E|---------------------------------------------------------------|
B|------9-11--11b12r11--9-11-9-----------------------------------|
G|--/10--------------------------10-8-10-------------------------|
D|---------------------------------------------------------------|
A|---------------------------------------------------------------|
E|---------------------------------------------------------------|

E|-------------------|
B|--------8----------|
G|--8h10-------------|
D|-------------------|
A|-------------------|
E|-------------------|

E|-8p6--------------------------------------|
B|------8h9p8--6h8p6------------------------|
G|------------------------8h10p8--7h8p7-----|
D|------------------------------------------|
A|------------------------------------------|
E|------------------------------------------|

E|----------------------|
B|----------------------|
G|-5h7p5--3h5p3---------|
D|---------------5--3---|
A|----------------------|
E|----------------------|

[Refrão]

Db7M                           Fm
Lua cheia        faz meu dia nascer
Db7M                               Fm
Fica à vontade,   eu tô aqui pra te ver
Db7M                    
Espero tanto pra te ouvir
Db7M                    
Espero tanto pra te ouvir
Db7M                       
Eu espero tanto pra te ouvir
        Db7M
Me chamar
Outros vídeos desta música
2.851 exibições
    • ½ Tom
    • A
    • Bb
    • B
    • C
    • Db
    • D
    • Eb
    • E
    • F
    • F#
    • G
    • Ab
  • Adicionar à lista

Afinação da cifra

Afinador online

    0 comentários

    Ver todos os comentários

    Entre para o Cifra Club PRO

    Tenha acesso a benefícios exclusivos no App e no Site

    • Chega de anúncios

    • Mais recursos no app do Afinador

    • Atendimento Prioritário

    • Aumente seu limite de lista

    • Ajude a produzir mais conteúdo

    Cifra Club Pro

    Aproveite o Cifra Club com benefícios exclusivos e sem anúncios
    Cifra Club Pro
    Aproveite o Cifra Club com benefícios exclusivos e sem anúncios
    OK