Cifra Club

Me Mude

Zimbra

Cifra: Principal (violão e guitarra)
tom: G
[Intro] F#  A  B  F#
        F#  A  B  F#

           D             B     F#m
Eu não pensava que isso fosse assim
D      B        F#m
É medo de falar que eu tenho
D            B        A
Então tento evitar o fim
         F#m                 A
Descontrolei quando você chegou
         B                   F#m
Não esperava que isso fosse assim

A raiva vem, a razão se vai
               B                 F#m
E tudo que se tem, agora não tem mais
           A                  
Sabem que vou chegar, mesmo tarde
         G            F#m
Sempre ilude quem não quer enxergar
        A
Já vai tarde
                    G
Seja rude e eu não vou saber dosar
          F#m
Não me obrigue a te deixar
    A
Me mude!

( F#  A  B  F# )

           D             B     F#m
Eu não pensava que isso fosse assim
D      B        F#m
É medo de falar que eu tenho
D            B        A
Então tento evitar o fim
         F#m                 A
Descontrolei quando você chegou
         B                   F#m
Não esperava que isso fosse assim

A raiva vem, a razão se vai
               B                 F#m
E tudo que se tem, agora não tem mais
           A                  
Sabem que vou chegar, mesmo tarde
         G            F#m
Sempre ilude quem não quer enxergar
        A
Já vai tarde
                    G
Seja rude e eu não vou saber dosar
          F#m
Não me obrigue a te deixar
    A
Me mude!

( G  F#m  A  G  F#m  A  G  F#m  A )

E|---------------------------|
B|--7/8-8--------------------|
G|--------7-6----------------|
D|------------9-7-------7----|
A|----------------9-7-9---9--|
E|---------------------------|

E|------------------------|
B|---15h17-15-------------|
G|------------18-16-18~~--|
D|------------------------|
A|------------------------|
E|------------------------|

E|---------------------------|
B|--7/8-8--------------------|
G|--------7-6----------------|
D|------------9-7-------7----|
A|----------------9-7-9---9--|
E|---------------------------|

E|-----------------------------------|-------------|
B|-----------9-10-12-10--------------|--7/8-8------|
G|------9-11------------11-11/12-12--|--------7-6--|
D|--11-------------------------------|-------------|
A|-----------------------------------|-------------|
E|-----------------------------------|-------------|

Sabem que vou chegar, mesmo tarde
        A             G#m
Sempre ilude quem não quer enxergar
        B
Já vai tarde, seja rude 
          A
E eu não vou saber dosar
          G#m
Não me obrigue a te deixar
    A     G#m  B
Me mude!
00:00 / 00:00
Outros vídeos desta música
Repetir
Outros vídeos desta música
Composição de Rafael Costa
Colaboração e revisão:
  • Gilson Feitosa
923 exibições
    • ½ Tom
    • A
    • Bb
    • B
    • C
    • Db
    • D
    • Eb
    • E
    • F
    • F#
    • G
    • Ab
  • Adicionar à lista

    0 comentários

    Ver todos os comentários

    Conseguiu tocar?

    0 Tocaram 0 Ainda não

    Grave um vídeo tocando Me Mude e nos envie!

    Entre para oCifra Club PRO

    Tenha acesso a benefícios exclusivos no App e no Site

    • Chega de anúncios

    • Prioridade de compra em lançamentos

    • Mais recursos no app do Afinador

    • Atendimento Prioritário

    • Descontos nos produtos Cifra Club

    • Ajude a produzir mais conteúdo

    00:00 / 00:00

    Cifra Club Pro

    Aproveite o Cifra Club com benefícios exclusivos e sem anúncios
    Cifra Club Pro
    Aproveite o Cifra Club com benefícios exclusivos e sem anúncios
    OK