Cifra Club

Missão Apollo

Zimbra

Cifra: Principal (violão e guitarra)
tom: A
[Intro]

E|--------------------------------------------------------------|
B|--------15------------15------------13-------------15---------|
G|-----15----15------14----14------15----15-------------------14|
D|--17------------15------------13-------------13/15----15/16---|
A|--------------------------------------------------------------|
E|--------------------------------------------------------------|

E|--------------------------------------------------------------|
B|--------15----------15------13-------------13-----------------|
G|-----15----15-----14--14----15----------15---15---------------|
D|--17-----------15-----------13-----13/15-------15-------------|
A|--------------------------------------------------------------|
E|--------------------------------------------------------------|

Gm        Dm
Eu sempre quis
Cm                             F
Saber como era estar um pouco longe de você
Gm      Dm        Eb
Cresci assim, não mudei
Gm        Dm             Cm
Eu quis te ver de lá de cima
            F                           Gm
Eu quis saber como era a vista de um lugar melhor
        Dm                              Cm
E eu entendi porque que o cara pra que vocês rezam tanto
        F                Cm
Volta a meia se esconde por aí
         F
Não aguentei ouvir

         Bb                       F/A                        Gm
Eu quis voar pra muito longe mas você me segurou e eu não pude mais 
   F
Ir
           Cm
Fiquei pra ver
                         F
Vai ver que vocês rezam tanto, sem saber

Bb                F                Gm        F
Eu quis voar e a gravidade não me autorizou
           Cm                         F
E eu descobri que não é fácil controlar
                   Bb
Algo que você planejou
                F            Gm      F
E mesmo que o tempo fosse me ajudar
            Cm                   F                      
Descarto a possibilidade de esquecer que um dia vou te alcançar

E|--------------------------------------------------------------|
B|--------15------------15------------13-------------15---------|
G|-----15----15------14----14------15----15-------------------14|
D|--17------------15------------13-------------13/15----15/16---|
A|--------------------------------------------------------------|
E|--------------------------------------------------------------|

E|--------------------------------------------------------------|
B|--------15----------15------13-------------13-----------------|
G|-----15----15-----14--14----15----------15---15---------------|
D|--17-----------15-----------13-----13/15-------15-------------|
A|--------------------------------------------------------------|
E|--------------------------------------------------------------|

( Gm  Dm  Cm  F  F# )
( Gm  Dm  Eb )
00:00 / 00:00
Outros vídeos desta música
Repetir
Outros vídeos desta música
Composição de Rafael Costa
Colaboração e revisão:
67.341 exibições
    • ½ Tom
    • A
    • Bb
    • B
    • C
    • Db
    • D
    • Eb
    • E
    • F
    • F#
    • G
    • Ab
  • Adicionar à lista

    0 comentários

    Ver todos os comentários

    Conseguiu tocar?

    30 Tocaram 5 Ainda não

    Grave um vídeo tocando Missão Apollo e nos envie!

    Entre para oCifra Club PRO

    Tenha acesso a benefícios exclusivos no App e no Site

    • Chega de anúncios

    • Prioridade de compra em lançamentos

    • Mais recursos no app do Afinador

    • Atendimento Prioritário

    • Descontos nos produtos Cifra Club

    • Ajude a produzir mais conteúdo

    00:00 / 00:00

    Cifra Club Pro

    Aproveite o Cifra Club com benefícios exclusivos e sem anúncios
    Cifra Club Pro
    Aproveite o Cifra Club com benefícios exclusivos e sem anúncios
    OK