Cifra Club

Morte e Sorte

Zimbra

Cifra: Principal (violão e guitarra)
Selo Cifra Club: esta cifra foi revisada para atender aos critérios oficiais da nossa Equipe de Qualidade.
tom: D
Intro: ( Dsus2 Dsus2/C# Dsus2/C Dsus2/B  Em Em/D# Em/D  A )

      Dsus2       Dsus2/C#    Dsus2/C     Dsus2/B
E|------0-----------0------------------------------------|
B|--------3---3-------3---3-------3-----------3----------|
G|----2-----2-----2-----2-----2-----2-----2-----2--------|
D|--0----------------------------------------------------|
A|--------------4-----------3-----------2----------------|
E|-------------------------------------------------------|

      Em          Em/D#        Em/D   A
E|-----------------------------------0-------------------|
B|-------0------------0-----------0--2-------------------|
G|-----0---0-- 0----0---0---0---0----2-------------------|
D|--2--------2---1--------1---0------2-------------------|
A|-----------------------------------0-------------------|
E|-------------------------------------------------------|

Dsus2  Dsus2/C#  Dsus2/C Dsus2/B
Vai bem depois que todos se vão
Em              Em/D#
Diz que não tem medo
Em/D             A
De não poder seguir

Dsus2  Dsus2/C#  Dsus2/C Dsus2/B
Fé, já não reza pois sem as mãos
Em              Em/D#
Diz que não tem medo
Em/D            A
Do seu mundo ruir

F#              G
Flores já não nascem do chão
       F#
É o final pra mim
               G
Todos que aparecem se vão
           Em
Mais fortes
            
Em            D
É questão de sorte
     A         Em
E a morte nos faz viver
               D
É questão de sorte
     A            Em
E a morte nos faz viver
            D
É questão de sorte
     A         G     A
E a morte nos faz... viver
Outros vídeos desta música
5.516 exibições
    • ½ Tom
    • A
    • Bb
    • B
    • C
    • Db
    • D
    • Eb
    • E
    • F
    • F#
    • G
    • Ab
  • Adicionar à lista

Afinação da cifra

Afinador online

    0 comentários

    Ver todos os comentários

    Entre para o Cifra Club PRO

    Tenha acesso a benefícios exclusivos no App e no Site

    • Chega de anúncios

    • Mais recursos no app do Afinador

    • Atendimento Prioritário

    • Aumente seu limite de lista

    • Ajude a produzir mais conteúdo

    Cifra Club Pro

    Aproveite o Cifra Club com benefícios exclusivos e sem anúncios
    Cifra Club Pro
    Aproveite o Cifra Club com benefícios exclusivos e sem anúncios
    OK