Cifra Club

Orfanato

Zimbra

Cifra: Principal (violão e guitarra)
tom: Db (forma dos acordes no tom de C) Capotraste na 1ª casa
[Intro] Am  F  E7

E|------------------------------------------------------------------------------------|
B|------1----------0h1------------1------0-----0--------------------------------------|
G|---------2-------------2--------2------1---------1----------------------------------|
D|-------------2---------------------------------------2------------------------------|
A|--0------------------------------------2--------------------------------------------|
E|------------------------------1-----------------------------------------------------|

[Riff]

E|------------------------------------------------------------------------------------|
B|------------------------------------------------------------------------------------|
G|------2-----2-------4--5------10-----9----------------------------------------------|
D|------------------------------------------------------------------------------------|
A|------------------------------------------------------------------------------------|
E|------------------------------------------------------------------------------------|

Am             F             E7
Discretamente olhei por baixo do lençol
Am                 F             E7
E descobri que onde eu 'tava’ não fazia sol
Am     F     E7
E então sorri
Am                   F             E7
Sinceramente eu não gostava do clarão do dia
Am                     F             E7
Honestamente eu preferia o que escuridão trazia
Am                F                    E7
Constantemente eu concentrava força em minhas mãos
Am            F                   E7
A mente trabalhava um pouco pra destruição
Am                       F               E7
Normal pra uma criança que não sabe como proceder
Am    F    E7
Normal por que?

Am                         F          E7
Despreparado, fraco, pobre, porém cheio de ilusão
Am                               F          E7
Eu decidi todas as coisas, procurei uma razão pra entender
Am                 F          E7
Como é que tudo funcionava ao meu redor
Am           F      E7
Eu quis mostrar o meu melhor

Dm7                      E7
Então eu fui atrás de sonhos falsos
Am                     G
Roubei de gente, andei descalço
Dm7           E7
Rezei por uma solução
Dm7                     E7
Não encontrei a solução e voltei
00:00 / 00:00
Outros vídeos desta música
Repetir
Outros vídeos desta música
Compositor não encontrado.
Colaboração e revisão:
  • Gabriel Franchini
  • Lucas Henrique
  • Dean Barker
26.066 exibições
    • ½ Tom
    • A
    • Bb
    • B
    • C
    • Db
    • D
    • Eb
    • E
    • F
    • F#
    • G
    • Ab
  • Adicionar à lista

    0 comentários

    Ver todos os comentários

    Conseguiu tocar?

    14 Tocaram 1 Ainda não

    Grave um vídeo tocando Orfanato e nos envie!

    Entre para oCifra Club PRO

    Tenha acesso a benefícios exclusivos no App e no Site

    • Chega de anúncios

    • Prioridade de compra em lançamentos

    • Mais recursos no app do Afinador

    • Atendimento Prioritário

    • Descontos nos produtos Cifra Club

    • Ajude a produzir mais conteúdo

    00:00 / 00:00

    Cifra Club Pro

    Aproveite o Cifra Club com benefícios exclusivos e sem anúncios
    Cifra Club Pro
    Aproveite o Cifra Club com benefícios exclusivos e sem anúncios
    OK