Cifra Club

Partida

Zimbra

Cifra: Principal (violão e guitarra)
Selo Cifra Club: esta cifra foi revisada para atender aos critérios oficiais da nossa Equipe de Qualidade.
tom: Ab (forma dos acordes no tom de F) Capotraste na 3ª casa
[Intro] Dm  C  F
        Dm  C  F

[Tab - Intro]

  Dm            C               F
E|-1----1--------------0--------1---------|
B|-1h3-----------1h3------------1---------|
G|-2-------------0--------------2---------|
D|-0-------------2--------------3---------|
A|---------------3--------------3---------|
E|------------------------------1---------|

  Dm             C              F
E|-1----1--------0--------------1---------|
B|-1h3-----------1--------------1---------|
G|-2-------------0--0h2p0-------2---------|
D|-0-------------2--------3-----3---------|
A|---------------3--------------3---------|
E|------------------------------1---------|

Dm                 C                F
  Meus olhos vão dizer bem mais do que eu vivi
Dm                     C         F
  E a vida insiste em me fazer ficar
Dm               C               F
  Começo a perceber que era tão bom ali
Dm                  C             F
  E agora eu tenho tanta coisa pra contar

[Pré-Refrão]

Gm7                       F
  O mundo deu uma chance pra nós dois
Gm7            Bb       C
  Quando tudo parecia se acabar

[Refrão]

     F            Bb  Bb7M
Meu bem, eu te avisei
   Am7     A7       Dm
Viver por pouco é bobagem
      Gm7                 C
Então guarda o que eu te dei
 Gm7    C        F
Pra não sentir saudade

[Solo] Dm  C  F  Dm  C  F

  Dm             C      F
E|-1----1--------0------1-----------------|
B|-1h3-----------1------1-----------------|
G|-2-------------0------2-----2/4p/2p0----| (2x)
D|-0-------------2------3-----------------|
A|---------------3------3-----------------|
E|----------------------1-----------------|

Dm                C             F
  Às vezes penso que é melhor apenas ir
Dm            C          F
  Velhos sentimentos reencontrar
Dm               C         F
  Qualquer dia desses eu volto aqui
Dm             C           F
  Ainda tenho tanta coisa pra contar

[Pré-Refrão]

Gm7                       F
  O mundo deu uma chance pra nós dois
Gm7            Bb       C
  Quando tudo parecia se acabar

[Refrão]

     F            Bb  Bb7M
Meu bem, eu te avisei
  Am7     A7         Dm
Viver por pouco é bobagem
      Gm7                C
Então guarda o que eu te dei
  Gm7   C        F
Pra não sentir saudade

[Ponte]

Bb             Dm 
  E nas voltas que o mundo deu
Bb           C
  Eu consegui te encontrar
Bb                Dm 
  Deixei tudo que não era eu
Bb       C            C7
  E vim bater na tua porta

[Refrão Final]

 F                       Am7      A7       Dm
Meu bem, eu te avisei, viver por pouco é bobagem
    Gm7                 C
Então guarda o que eu te dei
    Gm7  C       F
Pra não sentir saudade
    Gm   C       F
Pra não sentir saudade
    Gm   C       F
Pra não sentir saudade
00:00 / 00:00
Outros vídeos desta música
Repetir
Outros vídeos desta música
1.343 exibições
    • ½ Tom
    • A
    • Bb
    • B
    • C
    • Db
    • D
    • Eb
    • E
    • F
    • F#
    • G
    • Ab
  • Adicionar à lista

Afinação da cifra

Afinador online

    0 comentários

    Ver todos os comentários

    Entre para o Cifra Club PRO

    Tenha acesso a benefícios exclusivos no App e no Site

    • Chega de anúncios

    • Mais recursos no app do Afinador

    • Atendimento Prioritário

    • Aumente seu limite de lista

    • Ajude a produzir mais conteúdo

    00:00 / 00:00

    Cifra Club Pro

    Aproveite o Cifra Club com benefícios exclusivos e sem anúncios
    Cifra Club Pro
    Aproveite o Cifra Club com benefícios exclusivos e sem anúncios
    OK