Cifra Club

Fantasma

Zoé

Cifra: Principal (violão e guitarra)
Selo Cifra Club: esta cifra foi revisada para atender aos critérios oficiais da nossa Equipe de Qualidade.
tom: Am
 intro:
E|----------------------------------------------|
B|--------------------3-------------------------|
G|------4--6--4----4-----6--4----4---4----------|
D|-----------------------------5---4---2--------|
A|----------------------------------------00h2--|
E|----------------------------------------------|


Bm                             D
Dame una señal aunque me de miedo
G                         D
No se nada de ti y me siento muy mal

A|---00| H2--|
Bm                                 D
Se que donde estas puede ser difícil
G                      F#
O prácticamente imposible

ESTO SE TOCA EE NTRAS EL CORO
E|-----------------------------------------------------|
B|-----------------------------------------------------|
G|-----------------------------------------------------|
D|---2------2---------2--------3-----3----------2------|
A|-----3------3----3----3--------3-----3----3-----3----|
E|-3------3------1---1----1--5-----5------1---1-----1--|

E|-----------------------------------------------------|
B|-----------------------------------------------------|
G|-----------------------------------------------------|
D|---2------2---------2--------3-----3----------2------|
A|-----3------3----3----3--------3-----3----3----------|
E|-3------3------1---1----1--5-----5------1---1--------|

 CORO:

C                    Am
Fantasma de mi corazón
F                           Am
Humilde tierno y justo soñador
C                         Am
Gracias por todos esos años
F                   Am
Nunca te voy a olvidar

Bm    G   Cmaj7    Em
Huuuuu haaaa huuu haa

Bm     G  Cmaj7    Em
Huuuuu haaaa huuu haa

Esto va mientras esta el segundo huu ahh:

    Bm            G            Cmj7             Em
E|----------------------------------------------------|
B|----2------2------3------3------5-----5------5------|
G|------4------4------4------4------5-----5------4----|
D|--4------4------5------5------5------5-----5-----5--|
A|----------------------------------------------------|
E|----------------------------------------------------|


Bm                                D
No hace falta ni ver una fotografía
G                                 D
Te llevo en la sangre vives en mi ser

    A|---00| H2--|

Bm                                     D
Tu espíritu esta en las dunas del desierto
G                                    F#
Bajo un cielo inmortal te decimos adiós

C                   Am
Fantasma de mi corazón
F                           Am
Humilde tierno y justo soñador
C                        Am
Gracias por todos esos años
F                     Am
Nunca te vamos a olvidar
00:00 / 00:00
Outros vídeos desta música
Repetir
Outros vídeos desta música
125 exibições
    • ½ Tom
    • Am
    • Bbm
    • Bm
    • Cm
    • C#m
    • Dm
    • Ebm
    • Em
    • Fm
    • F#m
    • Gm
    • G#m
  • Adicionar à lista

Afinação da cifra

Afinador online

    0 comentários

    Ver todos os comentários

    Conseguiu tocar?

    0 Tocaram 0 Ainda não

    Grave um vídeo tocando Fantasma e nos envie!

    Toque também

    1. Imagem do artista León Larregui Brillas León Larregui
    2. Imagem do artista Liquits Desde Que Liquits
    3. Imagem do artista Vaquero Eres un encanto Vaquero
    4. Imagem do artista Austin Tv Ana no te falle Austin Tv

    Entre para o Cifra Club PRO

    Tenha acesso a benefícios exclusivos no App e no Site

    • Chega de anúncios

    • Mais recursos no app do Afinador

    • Atendimento Prioritário

    • Aumente seu limite de lista

    • Ajude a produzir mais conteúdo

    00:00 / 00:00

    Cifra Club Pro

    Aproveite o Cifra Club com benefícios exclusivos e sem anúncios
    Cifra Club Pro
    Aproveite o Cifra Club com benefícios exclusivos e sem anúncios
    OK