Cifra Club

Fotosintesis

Zoé

Cifra: Principal (violão e guitarra)
Selo Cifra Club: esta cifra foi revisada para atender aos critérios oficiais da nossa Equipe de Qualidade.
tom: D
C#m      D   C#m      D   C#m       D     C#m      D
Como quieres ser tu dueño hacerte esclavo de su sueño

B|---1/2-1-1/2-1-1---| x4

A
  Si es que no eres así...

C#m       D  C#m       D   C#m       D     C#m      D
Ya no quiero ser tu perro  hacerme esclavo de tu sueño

B|---1/2-1-1/2-1-1---| x4

A
  Si es que no eres así...

Coro:
Bm        A         G
Fotosíntesis de Dios
Bm    D           G
Permanencia voluntad
Bm     A           G
Florescencia artificial
Bm                  D                G
No me entierren que no estoy muerto aun....

C#m D C#m D C#m D C#m D A

RIFF:
E|-------------------------|
B|-------------------------|
G|--2-2-0-------2-----2----|
D|--------4-2-4---2-4------|
A|----------------------0--|
E|-------------------------|

B|---1/2-1-0-2-1---| x4


C#m       D  C#m       D   C#m       D   C#m      D
Ya no voy a  ser tu perro  ni el esclavo de tu sueño

B|---1/2-1-1/2-1-1---| x4

A
  Si es que no eres así...

Coro:
Bm        A         G
Fotosíntesis de Dios
Bm    D           G
Permanencia voluntad
Bm     A           G
Florescencia artificial
Bm                  D                G
No me entierren que no estoy muerto aun....



Solo:
   Bm       A          G                     Bm       D
E|---------------------------------------------------------------|
B|---------------------------------------------------------------|
G|---------------------------------------------------------------|
D|----0-2-4-0--0-2-4-0-------------0-----0------0-2-4-0--0-2-4-0-|
A|-2-------------------2-2-2-0-0/2---0/2---2-2-------------------|
E|---------------------------------------------------------------|

  G                     Bm          A         G
E|-------------------------------------------------------------------|
B|-------------------------------------------------------------------|
G|----------------------0/2-2-2-2-4-0-0-0-0-2------------------------|
D|------------0-----0-------------------------4-4-4-5-------2-----2--|
A|2-2-2-0-0/2---0/2---2-------------------------------5-5/7---5/7---5|
E|-------------------------------------------------------------------|

   Bm       D          G
E|----------------------------------------------|
B|----------------------------------------------|
G|----------------------------------------------|
D|----0-2-4-0--0-2-4-0-------------0-----0------|
A|-2-------------------2-2-2-0-0/2---0/2---2-2--|
E|----------------------------------------------|

Coro:
Bm        A         G
Fotosíntesis de Dios
Bm    D           G
Permanencia voluntad
Bm     A           G
Florescencia artificial
Bm                  D                G
No me entierren que no estoy muerto aun....

Bm Bm A Bm G
Outros vídeos desta música
210 exibições
    • ½ Tom
    • A
    • Bb
    • B
    • C
    • Db
    • D
    • Eb
    • E
    • F
    • F#
    • G
    • Ab
  • Adicionar à lista

Afinação da cifra

Afinador online

    0 comentários

    Ver todos os comentários

    Conseguiu tocar?

    0 Tocaram 0 Ainda não

    Grave um vídeo tocando Fotosintesis e nos envie!

    Toque também

    1. Imagem do artista León Larregui Brillas León Larregui
    2. Imagem do artista Liquits Chicharos Magicos Liquits
    3. Imagem do artista Austin Tv Rucci Austin Tv
    4. Imagem do artista Pastilla A Marte Pastilla

    Entre para o Cifra Club PRO

    Tenha acesso a benefícios exclusivos no App e no Site

    • Chega de anúncios

    • Mais recursos no app do Afinador

    • Atendimento Prioritário

    • Aumente seu limite de lista

    • Ajude a produzir mais conteúdo

    Cifra Club Pro

    Aproveite o Cifra Club com benefícios exclusivos e sem anúncios
    Cifra Club Pro
    Aproveite o Cifra Club com benefícios exclusivos e sem anúncios
    OK