Cifra Club

Sombras

Zoé

Cifra: Principal (violão e guitarra)
Selo Cifra Club: esta cifra foi revisada para atender aos critérios oficiais da nossa Equipe de Qualidade.
tom: C
INTRO
     C    Am   Em         C         Am          Em
E|-----------------| |----------------------------------------|
B|--8-8---8-8--8-8-| |-----9--9--9---9-9-9-----8-8-8---8-8-8--|
G|--9-9---9-9--9-9-| |-----9--9--9---9-9-9-----9-9-9---9-9-9--|
D|-10-10--7-7--9-9-| |-10-10-10-10-7-7-7-7-7-9-9-9-9-9-9-9-9--|
A|-----------------| |----------------------------------------|
E|-----------------| |----------------------------------------|

Int- Tec
E|-12------12--12-13-12------12--12-10--|--|
B|---13--13--13--------13--13--13-------| X2|
G|-----12----------------12-------------|--|
D|--------------------------------------|--|

C   Am              Em
dicen  que ya no siente,
       C   Am         Em
que su garganta lagrimas robó,
C    Am             Em
dicen  que estas ausente,
    C              Am            Em
que andas rondando si por la soledad.
(INTRO)
     C    Am   Em         C         Am          Em
E|-----------------| |----------------------------------------|
B|--8-8---8-8--8-8-| |-----9--9--9---9-9-9-----8-8-8---8-8-8--|
G|--9-9---9-9--9-9-| |-----9--9--9---9-9-9-----9-9-9---9-9-9--|
D|-10-10--7-7--9-9-| |-10-10-10-10-7-7-7-7-7-9-9-9-9-9-9-9-9--|
A|-----------------| |----------------------------------------|
E|-----------------| |----------------------------------------|

Int- Tec
E|-12------12--12-13-12------12--12-10--|--|
B|---13--13--13--------13--13--13-------| X2|
G|-----12----------------12-------------|--|
D|--------------------------------------|--|
C         Am          Em
no saltes por la ventana,
    C        Am           Em
no te arrodilles que te devorarán
Am                 F                         C     Am
desenfundar el corazon y disparar contra las sombras
  Em            C    Am        Em
tapando el sol, sobras tapandote,
        Am                  F
son tan solo sombras sin pena ni gloria
      C                    Em      C
son una ilusion, una proyección de ti.
(INTRO)
     C    Am   Em         C         Am          Em
E|-----------------| |----------------------------------------|
B|--8-8---8-8--8-8-| |-----9--9--9---9-9-9-----8-8-8---8-8-8--|
G|--9-9---9-9--9-9-| |-----9--9--9---9-9-9-----9-9-9---9-9-9--|
D|-10-10--7-7--9-9-| |-10-10-10-10-7-7-7-7-7-9-9-9-9-9-9-9-9--|
A|-----------------| |----------------------------------------|
E|-----------------| |----------------------------------------|

Int- Tec
E|-12------12--12-13-12------12--12-10--|--|
B|---13--13--13--------13--13--13-------| X2|
G|-----12----------------12-------------|--|
D|--------------------------------------|--|
   C   Am           Em
lamento  tus pensamientos,
           C   Am     Em
que no me creas nada ya,
Am                 F                       C     Am
desenfundar el corazon disparar contra las sombras
  Em
tapando el sol,

C            Am
sombras tapandote

Bridge
(empieza el bajo con su riff y des pues la guitarra hace lo sig)
Am D/F# G Em  X2
 C   Am  Em            C      Am  Em
Sombras tapando el sol, Sombras tapándote
C   Am  Em            C      Am  Em         C
Sombras tapando el sol, Sombras tapándote

Riff del Tec en el coro
E|----12--17-12---------8--13-8-------|
B|--13--13-----13-----10-10----10-----|
G|-12------------12-10-----------10-12|
D|------------------------------------|
00:00 / 00:00
Outros vídeos desta música
Repetir
Outros vídeos desta música
769 exibições
    • ½ Tom
    • A
    • Bb
    • B
    • C
    • Db
    • D
    • Eb
    • E
    • F
    • F#
    • G
    • Ab
  • Adicionar à lista

Afinação da cifra

Afinador online

    0 comentários

    Ver todos os comentários

    Conseguiu tocar?

    0 Tocaram 0 Ainda não

    Grave um vídeo tocando Sombras e nos envie!

    Toque também

    1. Imagem do artista León Larregui Brillas León Larregui
    2. Imagem do artista Liquits No te lo puedo prestar Liquits
    3. Imagem do artista Austin Tv Satelite Austin Tv
    4. Imagem do artista Pastilla Solamente Pastilla

    Entre para o Cifra Club PRO

    Tenha acesso a benefícios exclusivos no App e no Site

    • Chega de anúncios

    • Mais recursos no app do Afinador

    • Atendimento Prioritário

    • Aumente seu limite de lista

    • Ajude a produzir mais conteúdo

    00:00 / 00:00

    Cifra Club Pro

    Aproveite o Cifra Club com benefícios exclusivos e sem anúncios
    Cifra Club Pro
    Aproveite o Cifra Club com benefícios exclusivos e sem anúncios
    OK