Cifra Club

Like A Bitch

Zomboy

Cifra: Principal (violão e guitarra)
Selo Cifra Club: esta cifra foi revisada para atender aos critérios oficiais da nossa Equipe de Qualidade.
tom: Fm
[Intro]
E|-----------------------------------------|-----------------------------------|
B|-----------------------------------------|-----------------------------------|
G|-----------------------------------------|-----------------------------------|
D|---------------10-9----------------------|--------10-13---11---10------------|
A|--8------10-11--------10---11---8p7h8----|--10-11-------------------8p7h8----|
E|-----------------------------------------|-----------------------------------|

E|----------------------------------|------------------------------------------|
B|----------------------------------|------------------------------------------|
G|----------------------------------|------------------------------------------|
D|--------10-9----------------------|--------10-13---11---10-------------------|
A|--10-11--------10---11---8p7-7----|--10-11-------------------7---8-----------|
E|----------------------------------|------------------------------------------|

E|-----------------------------------------|-----------------------------------|
B|-----------------------------------------|-----------------------------------|
G|-----------------------------------------|-----------------------------------|
D|---------------10-9----------------------|--------10-13---11---10------------|
A|--8------10-11--------10---11---8p7h8----|--10-11-------------------8p7h8----|
E|-----------------------------------------|-----------------------------------|

E|----------------------------------|-----------|
B|----------------------------------|-----------|
G|----------------------------------|-----------|
D|--------10-9----------------------|--------10-| (glass smash)
A|--10-11--------10---11---8p7-7----|--10-11----|
E|----------------------------------|-----------|

...stop acting like a
E|-------|--------------------------------------|---------------------11--9--8~~--|
B|-------|------------------13-12~~-------------|------------------13-------------|
G|--1/10-|-10--10--10-12-13--------12--13\-10-9-|-10--10--10-12-13------10-10-----|
D|-------|-10--10-------------------------------|-10--10--------------------------|
A|-------|--------------------------------------|---------------------------------|
E|-------|--------------------------------------|---------------------------------|

E|--------------------------------------|-----------------|
B|------------------13-12~~-------------|-----------------|
G|-10--10--10-12-13--------12--13\-10-9-|-9--9--10~~\-----|
D|-11--11-------------------------------|-9--9------------|
A|--------------------------------------|-----------------|
E|--------------------------------------|-----------------|



************************************

| h  Hammer-on
| p  Pull-off
| ~  Vibrato
| /  Slide up
| \  Slide down
Outros vídeos desta música
    1 exibições
      • ½ Tom
      • Am
      • Bbm
      • Bm
      • Cm
      • C#m
      • Dm
      • Ebm
      • Em
      • Fm
      • F#m
      • Gm
      • G#m
    • Adicionar à lista

    Afinação da cifra

    Afinador online

      0 comentários

      Ver todos os comentários

      Conseguiu tocar?

      0Tocaram0Ainda não

      Grave um vídeo tocando Like A Bitch e nos envie!

      Toque também

      1. Imagem do artista SkrillexScary Monsters And Nice Sprites Skrillex
      2. Imagem do artista Kill The NoiseLike A Bitch Kill The Noise
      3. Imagem do artista Doctor PTetris Theme Doctor P
      4. Imagem do artista SkrillexFirst of the year Skrillex

      Entre para o Cifra Club PRO

      Tenha acesso a benefícios exclusivos no App e no Site

      • Chega de anúncios

      • Badges exclusivas

      • Mais recursos no app do Afinador

      • Atendimento Prioritário

      • Aumente seu limite de lista

      • Ajude a produzir mais conteúdo

      Cifra Club Pro

      Aproveite o Cifra Club com benefícios exclusivos e sem anúncios
      Cifra Club Pro
      Aproveite o Cifra Club com benefícios exclusivos e sem anúncios
      Ops (: Contenido disponible sólo en portugués.
      OK