Cifra Club

Estático

Zurdok

Cifra: Principal (violão e guitarra)
Selo Cifra Club: esta cifra foi revisada para atender aos critérios oficiais da nossa Equipe de Qualidade.
tom: Em
INTRO
aahhhhhh

VERSO
G                D
Es tan largo que no hay final
      B5                C5
sería fácil perder la razón
      G5          Bb5
justo antes de llegar
   A5
aahhhhhh
G                  D
Lo que viene en un día más
       B5                C5
lo que falta por ver escapar
         G5         Bb5
siempre existe un lugar
   A5
aahhhhhh

PD-C ORO

  C       Em         F5
Pero se acaba pronto todo...

 volverá A     Em....pe....zar
-|-------------------------------------|-
-|-------------------------------------|-
-|----5-5-5--7-7-7--8-8-8--10-10-10----|-
-|----5-5-5--7-7-7--8-8-8--10-10-10----|-
-|----3-3-3--5-5-5--6-6-6--8--8--8-----|-
-|-------------------------------------|-

CORO

siempre me encuentro dando vueltas tan rápido
cuando en realidad permanesco estático

1er guitarra

   G5        Bb5       C                   C
-|-------------------------------------------------|-
-|---------------------1-1-1-1---4-4-4-4---1-1-1-1-|-
-|---------------------0-0-0-0---0-0-0-0---0-0-0-0-|-
-|-5-5-5-5---8-8-8-8---2-2-2-2---5-5-5-5---2-2-2-2-|-
-|-5-5-5-5---8-8-8-8---3-3-3-3---6-6-6-6---3-3-3-3-|-
-|-3-3-3-3---6-6-6-6---3-3-3-3---6-6-6-6---3-3-3-3-|-
                       (wah)     (wah)     (wah)

2da guitarra (hay que fijarse cuando se toca esta parte)

-|--------------------|-
-|--------------------|-
-|---/7---5---3-------|-
-|----------------5---|-
-|--------------------|-
-|--------------------|-

2do VERSO
G                   D
Nunca en mi vida pensé encontrar
     B5             C5
un momento de serenidad
      G5         Bb5
tu me diste algo más
   A5
aahhhhhh
G                 D
Con este ruido no puedo hablar
      B5                C5
se confunde con la realidad
        G5          Bb5
que si existe de verdad
   A5
aahhhhhh

PD-C ORO

C       Em         F5
Pero se acaba pronto todo...

 volverá A     Em....pe....zar
-|-------------------------------------|-
-|-------------------------------------|-
-|----5-5-5--7-7-7--8-8-8--10-10-10----|-
-|----5-5-5--7-7-7--8-8-8--10-10-10----|-
-|----3-3-3--5-5-5--6-6-6--8--8--8-----|-
-|-------------------------------------|-

2do CORO

siempre me encuentro dando vueltas tan rápido
cuando en realidad permanesco estático

1er guitarra

   G5        Bb5       C                   C
-|-------------------------------------------------|-
-|---------------------1-1-1-1---4-4-4-4---1-1-1-1-|-
-|---------------------0-0-0-0---0-0-0-0---0-0-0-0-|-
-|-5-5-5-5---8-8-8-8---2-2-2-2---5-5-5-5---2-2-2-2-|-
-|-5-5-5-5---8-8-8-8---3-3-3-3---6-6-6-6---3-3-3-3-|-
-|-3-3-3-3---6-6-6-6---3-3-3-3---6-6-6-6---3-3-3-3-|-
                       (wah)     (wah)     (wah)

2da guitarra

-|--------------------|-
-|--------------------|-
-|---/7---5---3-------|-
-|----------------5---|-
-|--------------------|-
-|--------------------|-

BRIDGE
G      D     C    G
no necesitas todo
         D     C          G
puedes hacerlo con lo que hay
             D
por que al final
     C
volverá a empezar
     G
volverá a empezar

3er CORO

siempre me encuentro dando vueltas tan rápido
cuando en realidad permanesco estático

1er guitarra

   G5        Bb5       C                   C
-|-------------------------------------------------|-
-|---------------------1-1-1-1---4-4-4-4---1-1-1-1-|-
-|---------------------0-0-0-0---0-0-0-0---0-0-0-0-|-
-|-5-5-5-5---8-8-8-8---2-2-2-2---5-5-5-5---2-2-2-2-|-
-|-5-5-5-5---8-8-8-8---3-3-3-3---6-6-6-6---3-3-3-3-|-
-|-3-3-3-3---6-6-6-6---3-3-3-3---6-6-6-6---3-3-3-3-|-
                       (wah)     (wah)     (wah)

2da guitarra

-|--------------------|-
-|--------------------|-
-|---/7---5---3-------|-
-|----------------5---|-
-|--------------------|-
-|--------------------|-
Outros vídeos desta música
    100 exibições
      • ½ Tom
      • Am
      • Bbm
      • Bm
      • Cm
      • C#m
      • Dm
      • Ebm
      • Em
      • Fm
      • F#m
      • Gm
      • G#m
    • Adicionar à lista

    Afinação da cifra

    Afinador online

      0 comentários

      Ver todos os comentários

      Entre para o Cifra Club PRO

      Tenha acesso a benefícios exclusivos no App e no Site

      • Chega de anúncios

      • Badges exclusivas

      • Mais recursos no app do Afinador

      • Atendimento Prioritário

      • Aumente seu limite de lista

      • Ajude a produzir mais conteúdo

      Cifra Club Pro

      Aproveite o Cifra Club com benefícios exclusivos e sem anúncios
      Cifra Club Pro
      Aproveite o Cifra Club com benefícios exclusivos e sem anúncios
      Ops (: Contenido disponible sólo en portugués.
      OK