Cifra Club

La Grange

ZZ Top

Cifra: Principal (violão e guitarra)
Selo Cifra Club: esta cifra foi revisada para atender aos critérios oficiais da nossa Equipe de Qualidade.
tom: A
[Introdução]
  
E|------------------------------------------|
B|------------------------------------------|
G|-2-2---2---2---2---2---2-------5-2---5b---|
D|-2-2---2---2---2---2---2-5p2---2-2---2----|
A|-0----------------------------------------|
E|------------------------------------------|

E|------------------------------------------|
B|------------------------------------------|
G|-2---2---2---2---2---2-------5-2---5b-----|
D|-2---2---2---2---2---2-5p2---2-2---2------|
A|------------------------------------------|
E|------------------------------------------|

E|------------------------------------------|
B|------------------------------------------|
G|-2---2---2---2---2---2-------5-2---5b-----|
D|-2---2---2---2---2---2-5p2---2-2---2------|
A|------------------------------------------|
E|------------------------------------------|


[Primeira Parte]

   A5                      C5    D5
E|------------------------------------------|
B|------------------------------------------|
G|---2---2---2---2---2---2------------------|
D|---2---2---2---2---2---2------------------|
A|-------------------------3-----5--x-------|
E|------------------------------------------|

   A5                      C5    D5
E|------------------------------------------|
B|------------------------------------------|
G|---2---2---2---2---2---2------------------| (7x)
D|---2---2---2---2---2---2------------------|
A|-0-----------------------3-----5--x-------|
E|------------------------------------------|

   A5               
E|------------------------------------------|
B|------------------------------------------|
G|---2---2---2---2--------------------------|
D|---2---2---2---2--------------------------|
A|-0----------------------------------------|
E|------------------------------------------|

Rumour spreadin' around 
In that Texas town
'Bout that shack outside La Grange
And you know what 
I'm talkin' about
Just let me know 
If you wanna go
To that home out on the range
They gotta lotta nice girls


[Segunda Parte]

   A5                      C5    D5
E|------------------------------------------|
B|------------------------------------------|
G|-2-2---2---2---2---2---2------------------| (12x)
D|-2-2---2---2---2---2---2------------------|
A|-0-----------------------3-----5--x-------|
E|------------------------------------------|

Well, I hear it's fine
If you got the time
And the ten to get yourself in
And I hear it's tight 
Most every night
But now I might be mistaken


[Primeiro Solo] C5  Eb5  F5

E|-----------8-----------------------------------------|
B|-11b13~~-----11p8-11p8----8--------------------------|
G|-----------------------10---8----10p8----------------|
D|------------------------------10------10-8h10~~------|
A|-----------------------------------------------------|
E|-----------------------------------------------------|

E|-----------------------------------------------------|
B|-----------------------------------------------------|
G|--------------------------------------------------8b-|
D|-------8---------/10~~--------8---------/10-10~------|
A|-8h10----10\8-6---------8h10----10\8-6---------------|
E|-----------------------------------------------------|

E|-----------------------------------------------------|
B|-----------------------------------------------------|
G|-----------------------------------------------------|
D|-------8--------------------------8------------/10-10|
A|-8h10----10\8-6-8-6---------8/10----10\8-6-8-6-------|
E|--------------------8-6-8-8--------------------------|

E|-----------------------------------------------------|
B|------11----11----11----11---------------------------|
G|-/12-----12----12----12-----\10--8b------------------|
D|-------------------------------------10~-------------|
A|-----------------------------------------------------|
E|-----------------------------------------------------|

E|-----------------------------------------------------|
B|-----------------------------------------------------|
G|-----------------------------------------------------|
D|-------8---------------------------------------------|
A|-8h10----10\8-6-8-6----------6---6-8-6-8-8/10--------|
E|--------------------8--8-6-8---8---------------------|

E|-----------------------------------------------------|
B|-----------------------------------------------------|
G|------------------8b--------------------------8b-----|
D|-8-10---8-10---10------10---10-10---8-10---10--------|
A|-----------------------------------------------------|
E|-----------------------------------------------------|

E|-----------------------------------------------------|
B|-----------------------------------------------------|
G|-8b10~---b10r8-----8b10--8b9-------------------------|
D|---------------10-------------10~--------------------|
A|-----------------------------------------------------|
E|-----------------------------------------------------|

E|-----------------------------------------------------|
B|------11-11--11--------11-11-------11----11----------|
G|-/12--------------/12----------/12----12----\10--8---|
D|-----------------------------------------------------|
A|-----------------------------------------------------|
E|-----------------------------------------------------|

E|----------8------------------------------------------|
B|--------8---11p8----8--------------------------------|
G|-10b12-----------10---8------10p8----8---------------|
D|------------------------10-8------10----10-8---------|
A|---------------------------------------------10-9-8--|
E|-----------------------------------------------------|

E|-----------------------------------------------------|
B|-----------------------------------------------------|
G|-------------------------------------8b--------------|
D|----------------8-8----------/10-10~-----------------|
A|-6b--------8/10------10-8-6--------------------------|
E|-----8-8~--------------------------------------------|

E|-----------------------------------------------------|
B|------11----11----11----11----11----11---------------|
G|-/12-----12----12----12----12----12------------------|
D|-----------------------------------------------------|
A|-----------------------------------------------------|
E|-----------------------------------------------------|

E|-----------------------------------------------------|
B|------11----11----11----11----11---------------------|
G|-/12-----12----12----12----12------------------------|
D|-----------------------------------------------------|
A|-----------------------------------------------------|
E|-----------------------------------------------------|

E|-----------------------------------------------------|
B|------11----11----11----11----11---------------------|
G|-/12-----12----12----12----12------------------------|
D|-----------------------------------------------------|
A|-----------------------------------------------------|
E|-----------------------------------------------------|

E|-----------------------------------------------------|
B|------11----11----11----11----11---------------------|
G|-/12-----12----12----12----12------------------------|
D|-----------------------------------------------------|
A|-----------------------------------------------------|
E|-----------------------------------------------------|

E|-----------------------------------------------------|
B|------11----11---------------------------------------|
G|-/12-----12----12\10--8------------------------------|
D|------------------------10--8-10-10~-----------------|
A|-----------------------------------------------------|
E|-----------------------------------------------------|

E|-----------------------------------------------------|
B|------11----11----11----11----11------11----11-------|
G|-/12-----12----12----12----12-----/12----12----------|
D|-----------------------------------------------------|
A|-----------------------------------------------------|
E|-----------------------------------------------------|

E|-----------------------------------------------------|
B|------11----11----11----11----11------11----11-------|
G|-/12-----12----12----12----12-----/12----12----------|
D|-----------------------------------------------------|
A|-----------------------------------------------------|
E|-----------------------------------------------------|

E|-----------------------------------------------------|
B|------11-------11-------11---------------------------|
G|-/12------/12------/12------12\10--8b----------------|
D|---------------------------------------10~~----------|
A|-----------------------------------------------------|
E|-----------------------------------------------------|

E|-----------------------------------------------------|
B|-----8-10-8-13~~-------------------------------------|
G|-8h9-------------------------------------------------|
D|-----------------------------------------------------|
A|-----------------------------------------------------|
E|-----------------------------------------------------|


[Ponte]

E|----5---5---5---5---5---5---5---5---5-----|
B|------------------------------------------|
G|------------------------------------------|
D|-/5---5---5---4---4---4---3---3---3-------|
A|------------------------------------------|
E|------------------------------------------|

E|------------------------------------------|
B|------------------------------------------|
G|------------2-----------------------------|
D|-2----------------------------------------|
A|-0---0--3h4-------------------------------|
E|------------------------------------------|

E|----5---5---5---5---5---5---5---5---5-----|
B|------------------------------------------|
G|------------------------------------------|
D|-/5---5---5---4---4---4---3---3---3-------|
A|------------------------------------------|
E|------------------------------------------|

E|------------------------------------------|
B|------------------------------------------|
G|------------2-----------------------------|
D|-2----------------------------------------|
A|-0---0--3h4-------------------------------|
E|------------------------------------------|


[Terceira Parte]

E|------------------------------------------|
B|------------------------------------------|
G|-2-2---2---2---2---2---2-------5-2---5b---|
D|-2-2---2---2---2---2---2-5p2---2-2---2----|
A|-0----------------------------------------|
E|------------------------------------------|

E|------------------------------------------|
B|------------------------------------------|
G|-2---2---2---2---2---2-------5-2---5b-----|
D|-2---2---2---2---2---2-5p2---2-2---2------|
A|------------------------------------------|
E|------------------------------------------|

E|------------------------------------------|
B|------------------------------------------|
G|-2---2---2---2---2---2-------5-2---5b-----|
D|-2---2---2---2---2---2-5p2---2-2---2------|
A|------------------------------------------|
E|------------------------------------------|

E|------------------------------------------|
B|------------------------------------------|
G|-2---2---2---2----------------------------|
D|-2---2---2---2----------------------------|
A|------------------------------------------|
E|------------------------------------------|

   A5                      C5    D5
E|------------------------------------------|
B|------------------------------------------|
G|-2-2---2---2---2---2---2------------------|
D|-2-2---2---2---2---2---2------------------|
A|-0-----------------------3-----5---x------|
E|------------------------------------------|

   A5                      C5    D5
E|------------------------------------------|
B|------------------------------------------|
G|-2-2---2---2---2---2---2------------------|
D|-2-2---2---2---2---2---2------------------|
A|-0-----------------------3-----5---x-0----|
E|------------------------------------------|


[Segundo Solo]

E|-----------------------------------------------------|
B|-----------------------------------------------------|
G|------------7b--5b-----------------------------------|
D|-5h7p5h7------------7~-------------------------------|
A|-----------------------------------------------------|
E|-----------------------------------------------------|

E|-----------------------------------------------------|
B|-8b10-8b10---8b10-8b10~--b10r8p5-8-8b10~-------------|
G|-----------------------------------------------------|
D|-----------------------------------------------------|
A|-----------------------------------------------------|
E|-----------------------------------------------------|

E|-----------------------------------------------------|
B|-b10r8p5-8-------------------------------------------|
G|-----------7b--7--5b--7b--5b-------------------------|
D|------------------------------7~---------------------|
A|-----------------------------------------------------|
E|-----------------------------------------------------|

E|-----------------------------------------------------|
B|------5--8-------------------------------------------|
G|-7b9--------7b--7--5b----5br-------------------------|
D|------------------------------7----------------------|
A|-----------------------------------------------------|
E|-----------------------------------------------------|

E|-----------------------------------------------------|
B|-----------------------------------------------------|
G|-5b--7b--5b--7b--5b--7b--5b--7b---5b-----------------|
D|-----------------------------------------------------|
A|-----------------------------------------------------|
E|-----------------------------------------------------|

E|-----------------------------------------------------|
B|-----------------------------------------------------|
G|-5b--7b--5b--7b9r----7b9r7p5-7-5br-------------------|
D|------------------------------------7~---------------|
A|-----------------------------------------------------|
E|-----------------------------------------------------|

E|----------------------------8b10r--8b-5~-------------|
B|-----8-10b12r---8--10-10~----------------------------|
G|-7/9-------------------------------------------------|
D|-----------------------------------------------------|
A|-----------------------------------------------------|
E|-----------------------------------------------------|

E|-----------------------------------------------------|
B|-----8-----------------------------------------------|
G|-7b9---7b--5b--7--7b--5b-----------------------------|
D|--------------------------7~~------------------------|
A|-----------------------------------------------------|
E|-----------------------------------------------------|

E|-----------5-----------------------------------------|
B|-------5-8---7b---5b---------------------------------|
G|---5h7-----------------7b---5b-----------------------|
D|-7-------------------------------7b---5b-------------|
A|-------------------------------------------7\5p3-----|
E|-----------------------------------------------------|

E|-----------------------------------------------------|
B|-----------------------------------------------------|
G|---------------------------------5b---7b---5b--------|
D|---------------------------/7b-----------------------|
A|-5p3---5b---3b---5b---3b-----------------------------|
E|-----------------------------------------------------|

E|-----------------------------------------------------|
B|-----------------------------------------------------|
G|-7b---7b---7b---7b---7b---7b---7b---7b---7b---7b-----|
D|-----------------------------------------------------|
A|-----------------------------------------------------|
E|-----------------------------------------------------|

E|-----------------------------------------------------|
B|-----------------------------------------------------|
G|-7b---7b---7b---7b---7b---7b---7b---7b---7b---7b-----|
D|-----------------------------------------------------|
A|-----------------------------------------------------|
E|-----------------------------------------------------|

E|-----------------------------------------------------|
B|-----------------------------------------------------|
G|-7b---7b---7b---7b---7br7p5--------------------------|
D|----------------------------7~-----------------------|
A|-----------------------------------------------------|
E|-----------------------------------------------------|

E|-------5------------------8b10---8b10r--8--5-5-------|
B|-----5---8/10~--10~--10~-----------------------------|
G|-5h6-------------------------------------------------|
D|-----------------------------------------------------|
A|-----------------------------------------------------|
E|-----------------------------------------------------|

E|--------------------------5--------------------------|
B|-8p5---5----------------5---8~---8~------------------|
G|-----7---5h7p5------5h6------------------------------|
D|---------------7~------------------------------------|
A|-----------------------------------------------------|
E|-----------------------------------------------------|



Outros vídeos desta música
    164.591 exibições
      • ½ Tom
      • A
      • Bb
      • B
      • C
      • Db
      • D
      • Eb
      • E
      • F
      • F#
      • G
      • Ab
    • Adicionar à lista

    Afinação da cifra

    Afinador online

      0 comentários

      Ver todos os comentários

      Entre para o Cifra Club PRO

      Tenha acesso a benefícios exclusivos no App e no Site

      • Chega de anúncios

      • Badges exclusivas

      • Mais recursos no app do Afinador

      • Atendimento Prioritário

      • Aumente seu limite de lista

      • Ajude a produzir mais conteúdo

      Capítulos
      • Tocando a Música
      • Apresentação / Equipamentos
      • Dicas da Música
      • Tocando Introdução - Primeira Parte
      • Ensinando Introdução
      • Ensinando Primeira Parte
      • Tocando Segunda Parte - Primeiro Solo
      • Ensinando Base Primeiro Solo
      • Ensinando Primeiro Solo
      • Tocando Ponte
      • Ensinando Ponte
      • Tocando Terceira Parte - Segundo Solo
      • Ensinando Segundo Solo
      • Encerramento

      Cifra Club Pro

      Aproveite o Cifra Club com benefícios exclusivos e sem anúncios
      Cifra Club Pro
      Aproveite o Cifra Club com benefícios exclusivos e sem anúncios
      Ops (: Contenido disponible sólo en portugués.
      OK