Cryin'

Aerosmith

 Aerosmith
Tom: D
		
Intro:
(Guitarra 1)

   Bb5 C5  F5  G5
E|---------------------------------------------------
B|---------------------------------------------------
G|-3---5----------5b7~--b7~--b7~--b7~--b7r5--3~~-----
D|---------3---5-------------------------------------
A|---------------------------------------------------
E|---------------------------------------------------


   Bb5 C5  F5  G5
E|---------------------------------------------------
B|---------------------------------------------------
G|-3---5----------5b7~--b7~--b7~--b7r5--5--3h5p3~----
D|---------3---5-------------------------------------
A|---------------------------------------------------
E|---------------------------------------------------


   Bb5 C5  F5  G5
E|---------------------------------------------------
B|---------------------------------------------------
G|-3---5----------5b7~--b7~--b7~--b7~--b7r5--3~~-----
D|---------3---5-------------------------------------
A|---------------------------------------------------
E|---------------------------------------------------


   Bb5 C5  F5  G5                            Bb5
E|---------------------------------------------------
B|---------------------------------------------------
G|-3---5----------5b7~--b7~--b7~--b7~--b7r5--5~--3~--
D|---------3---5-------------------------------------
A|---------------------------------------------------
E|---------------------------------------------------


(Guitarra 2)

   Bb5 C5  F5  G5
E|-----------------------------------------
B|-----------------------------------------
G|-3---5-----------------------------------   (3x)
D|-3---5---3---5-5-5-5-5-5-5---------------
A|-1---3---3---5-5-5-5-5-5-5---------------
E|---------1---3-3-3-3-3-3-3---------------


   Bb5 C5  F5  G5          Bb5
E|-----------------------------------------
B|-----------------------------------------
G|-3---5-----------------------------------
D|-3---5---3---5-5-5-5-5-5-8-8-8-8-8-8-----
A|-1---3---3---5-5-5-5-5-5-8-8-8-8-8-8-----
E|---------1---3-3-3-3-3-3-6-6-6-6-6-6-----



Primeira Parte:

   A           E           F#m
E|-------0-----------0---------2-----------
B|-----2---2-------0---0---------2---2-----
G|---2-------2---1-------1---2-----2-------
D|-----------------------------------------
A|-0---------------------------------------
E|-------------0-----------2---------------


   C#m         D           A
E|-------------------2-----------0---------
B|-------5---------3---3-----------2-------
G|-----6---6-----2-------2-----2-----2-----
D|---6-------6-0-------------2-------------
A|-4-----------------------0---------------
E|-----------------------------------------


   E
E|-------0-----------0---------------------
B|---------0-----------0-------------------
G|-----1-----1-----1-----1-----------------
D|---2-----------2-------------------------
A|-----------------------------------------
E|-0-----------0---------------------------



A              E
  There was a time
F#m               C#m
  When I was so broken-hearted
D              A           E
  Love wasn't much, of a friend of mine

A                  E
  The tables have turned, yeah
F#m                   C#m
  'Cause me and them ways have parted
D               A             E
  That kind of love, was the killin' kind

Pré-Refrão 1:

   G5               D5
E|-----------------------------------------
B|-----------------------------------------
G|------------------7----------------------   (2x)
D|------5-----------7----7--------7--------
A|------5--------5--5----5--8--9-----------
E|-3-------6--7----------------------------


   C5                G5
E|-----------------------------------------
B|-----------------------------------------
G|-----------------------------------------
D|-5--------5--7--5------------------------
A|-3--6--7-----------5--------5--7--5------
E|-------------------3--6--7---------------


   E
E|-----------------------------------------
B|-0--------0--------0--------0------------
G|-1--------1--------1--------1------------
D|-2--------2--------2--------2------------
A|-2--2--2--2--2--2--2--2--2--2--2--2------
E|-0--0--0--0--0--0--0--0--0--0--0--0------



G5       D5
  All I want,
       G5             D5
is someone I can't resist
C5                G5
  I know all right
                     E
Need to know by the way that I got kissed

Primeiro Refrão:

   A   E           F#m         D
E|---0-------0-----------2-----------2-----
B|---2---0-----0-------2---2-----3-----3---
G|---2-----1-----1---2-------2-----2-----2-
D|-2---------------------------0-----------
A|-0---------------------------------------
E|-----0-----------2-----------------------


   A           E
E|---0---0-------0---0---------------------
B|---------2-----------0-------------------
G|-----2-----2-----1-----1-----------------
D|-----------------------------------------
A|-0---------------------------------------
E|-------------0---------------------------


(Riff 1)

   D
E|------10----------10-----------12----------10------
B|---------------------------------------------------
G|-9/11----11--9/11----11--11/12----12-12\11----11\--
D|---------------------------------------------------
A|---------------------------------------------------
E|---------------------------------------------------



   A   E           C#m         D
E|---0-------0-----------------------2-----
B|---2---0-----0---------5-------3-----3---
G|---2-----1-----1-----6---6-------2-----2-
D|-2-----------------6-------6-0-----------
A|-0---------------4-----------------------
E|-----0-----------------------------------


   A           E           D5
E|---0---0-------0---0---------------------
B|---------2-----------0-------------------
G|-----2-----2-----1-----1-2-2-2-4-4-4-2---
D|-------------------------0-0-0-0-0-0-0---
A|-0---------------------------------------
E|-------------0---------------------------



        A            E
I was cryin' when I met you
          F#m        D
Now I'm tryin to forget you
A                E         D (Riff 1)
  Your Love is sweet, misery
        A             E
I was cryin' just to get you
         C#m            D
Now I'm dyin' 'cause I let you
A              E          D
  Do what you do down on me

Intro - Passagem com vocal:

   Bb5 C5  F5  G5
E|---------------------------------------------------
B|---------------------------------------------------
G|-3---5----------5b7~--b7~--b7~--b7~--b7r5--3~~-----  (3x)
D|---------3---5-------------------------------------
A|---------------------------------------------------
E|---------------------------------------------------


   Bb5 C5  F5  G5
E|---------------------------------------------------
B|---------------------------------------------------
G|-3---5----------5b7~--b7~--b7~--b7~--b7~--b7~~~----
D|---------3---5-------------------------------------
A|---------------------------------------------------
E|---------------------------------------------------



Bb5 C5 F5 G5
            Now there's not even breathin' room
Bb5 C5 F5 G5
            Between pleasure and pain
Bb5 C5 F5 G5
            Yeah you cry when we're makin love
Bb5 C5 F5 G5
            Must be one and the same

Segunda Parte:

   A           E           F#m
E|-------0-----------0-----------2\--------
B|-----2----2------0----0------2-----------
G|---2-----------1-----------2-------------
D|-----------------------------------------
A|-0---------------------------------------
E|-------------0-----------2---------------


   C#m         D           A
E|-------------------2-----------0---------
B|-------5\--------3---3-----------2-------
G|-----6---------2-------2-----2-----2-----
D|---6---------0-------------2-------------
A|-4-----------------------0---------------
E|-----------------------------------------


   E
E|-------0-----------0---------------------
B|---------0-----------0-------------------
G|-----1-----1-----1-----1-----------------
D|---2-----------2-------------------------
A|-----------------------------------------
E|-0-----------0---------------------------


(Riff 2)

   A       E       F#m   C#m    D    A
E|-----------------------------------------
B|-12b14~--b14r12~-9b10~-b10r9~-5b7~-b7r5~-
G|-----------------------------------------
D|-----------------------------------------
A|-----------------------------------------
E|-----------------------------------------


   E
E|-----------------------------------------
B|-----------------------------------------
G|-----------------------------------------
D|-------------------------------2--4--5~--
A|-7--7--7--7--4--2-----------2------------
E|-------------------2b3r2-0---------------


A               E
  It's down on me
 F#m            C#m
Yeah, I got to tell you one thing
D                  A
  It's been on my mind
          E
  Girl I gotta say

(Riff 2)
A                     E
  We're partners in crime
 F#m             C#m
You got that certain something
D                   A
  What you give to me
             E
  Takes my breath away

Pré-Refrão 2:

   G5               D5
E|-----------------------------------------
B|-----------------------------------------
G|------------------7----------------------
D|------5-----------7----7--------7--------
A|------5--------5--5----5--8--9-----------
E|-3-------6--7----------------------------


   G5               D5
E|-----------------------------------------
B|-----------------------------------------
G|------------------7----------------------
D|------5-----------7--------7--9--7-------
A|------5--------5--5--8--9----------------
E|-3-------6--7----------------------------


   C5                G5
E|-----------------------------------------
B|-----------------------------------------
G|-----------------------------------------
D|-5--------5--7--5------------------------
A|-3--6--7-----------5--------5--7--5------
E|-------------------3--6--7---------------


   E
E|-----------------------4-----4-----4-----
B|-0--------0------------------------------
G|-1--------1--------3/4---3/4---3/4-------
D|-2--------2------------------------------
A|-2--2--2--2--2--2------------------------
E|-0--0--0--0--0--0------------------------



         G5                D5
Now the word out on the street
        G5              D5
Is the devil's in your kiss
C5                G5
  If our love goes up in flames
          E
  It's a fire I can't resist

Segundo Refão:

   A     E           F#m         D
E|----0--------0-----------2---------2-----
B|----2----0-----0-------2---2---3-----3---
G|-2--2------1-----1---2-------2-2-2-----2-
D|-2-----------------------------0---------
A|-0-----2-----------4---------------------
E|-------0-----------2---------------------


   A           E
E|---0---0-------0---0---------------------
B|---------2-----------0-------------------
G|-----2-----2-----1-----1-----------------
D|-2---------------------------------------
A|-0-----------2---------------------------
E|-------------0---------------------------


(Riff 3)

   D
E|------10--------12---------------------------------
B|---------------------------------------------------
G|-9/11----11-/12----12--9b11--9b11-9b11r9--9\-------
D|---------------------------------------------------
A|---------------------------------------------------
E|---------------------------------------------------



   A     E           C#m         D
E|----0--------0---------------------2-----
B|----2----0-----0---------5-----3-----3---
G|-2--2------1-----1-----6---6---2-2-----2-
D|-2-----------------6-6-------6-0---------
A|-0-----2-----------4---------------------
E|-------0---------------------------------


   A           E            D5
E|---0---0-------0---0---------------------
B|---------2-----------0-------------------
G|-----2-----2-----1-----1--2-2-2-4-4-4-2--
D|-2------------------------0-0-0-0-0-0-0--
A|-0-----------2---------------------------
E|-------------0---------------------------



        A            E
I was cryin' when I met you
          F#m        D
Now I'm tryin to forget you
A                E         D (Riff 3)
  Your Love is sweet, misery
        A             E
I was cryin' just to get you
         C#m            D
Now I'm dyin' 'cause I let you
A              E          D
  Do what you do down on me

Solo:  Bb5  C5  F5  G5  (3x)
       Bb5  C5  F5  G5  Bb5
(Parte 1)

E|---------------------------------------------------
B|-13b15--13b15--13b15r13--11-13-11~~----------------
G|------------------------------------12~\-----------
D|---------------------------------------------------
A|---------------------------------------------------
E|---------------------------------------------------


(Parte 2)

E|---------------------------------------------------
B|-----11-13-13b15-13-11-13-11~~---------------------
G|-/12---------------------------12~\----------------
D|---------------------------------------------------
A|---------------------------------------------------
E|---------------------------------------------------


(Parte 3)

E|---------------------------------------------------
B|---------------------------------------------------
G|-----17b19r17-15----15-17b19r17-15----17p15--------
D|-/17-------------17----------------17-------17-----
A|---------------------------------------------------
E|---------------------------------------------------


(Parte 4)

E|----------15----18b20r18~~-15----------18b20-18b20-
B|-------15----15---------------15-18-15-------------
G|-17b19---------------------------------------------
D|---------------------------------------------------
A|---------------------------------------------------
E|---------------------------------------------------



E|-18b20--15-------15-------15-------15--------------
B|-----------18b20----18b20----18b20-----------------
G|---------------------------------------------------
D|---------------------------------------------------
A|---------------------------------------------------
E|---------------------------------------------------



Final do Solo + Vocal:
(Guitarra 1)

   Eb5                        Bb5
E|-------11-------11---------------9-----------------
B|-14b16----14b16----14b16~~--9b11---9b11-9b11~~-----
G|---------------------------------------------------
D|---------------------------------------------------
A|---------------------------------------------------
E|---------------------------------------------------


   Eb5                        Bb5
E|-------11-------11---------------9------9----------
B|-14b16----14b16----14b16~~--9b11---9b11---9b11~~---
G|---------------------------------------------------
D|---------------------------------------------------
A|---------------------------------------------------
E|---------------------------------------------------


   Ab5                 Eb5
E|-----4-----4--------------11-------11--------------
B|-7b9---7b9---7b9~~--14b16----14b16----14b16~~------
G|---------------------------------------------------
D|---------------------------------------------------
A|---------------------------------------------------
E|---------------------------------------------------


   E5
E|-----0-----0-----2-----4---4---4-------------------
B|---------------------------------------------------
G|-0h1---0h1---1/2---2/4---4---4---------------------
D|---------------------------------------------------
A|---------------------------------------------------
E|---------------------------------------------------



E|-----12----------14----------16----16----16--------
B|---------------------------------------------------
G|-/13----13-13/14----14-14/16----16----16-----------
D|---------------------------------------------------
A|---------------------------------------------------
E|---------------------------------------------------



(Guitarra 2)
         Eb5           Bb5
'Cause what you got inside
        Eb5                    Bb5
Ain't where your love should stay
     Ab5                    Eb5
Yeah,  our love, sweet love, ain't love
           E5
'Till you give your heart away

Terceiro Refrão:

   A           E           C#m
E|-------0-----------0---------------------
B|-----2---2-------0---0---------5---------
G|---2-------2---1-------1-----6---6-------
D|---------------------------6-------6-----
A|-0-----------------------4---------------
E|-------------0---------------------------


   D           A           E
E|-------2-----------0-----------0---------
B|-----3---3-------2---2-------0---0-------
G|---2-------2---2-------2---1-------1-----
D|-0---------------------------------------
A|-------------0---------------------------
E|-------------------------0---------------


   D5
E|-----------------------------------------
B|--------------3-3-3-3-3------------------
G|-2--2-4--4-2--2-2-2-2-2------------------
D|-0--0-0--0-0--0-0-0-0-0------------------
A|-----------------------------------------
E|-----------------------------------------


   A           E           F#m
E|-------0-----------0---------------------
B|-----2---2-------0---0-------------------
G|---2-------2---1-------1-----------------
D|-----------------------------------------
A|-0---------------------------------------
E|-------------0-----------2---------------


   D           A           E
E|-------2-----------0-----------0---------
B|-----3---3-------2---2-------0---0-------
G|---2-------2---2-------2---1-------1-----
D|-0---------------------------------------
A|-------------0---------------------------
E|-------------------------0---------------


   D5
E|-----------------------------------------
B|-3-3-3-3-3-3-3-3-3-3-3-3-----------------
G|-2-2-2-2-2-2-2-2-2-2-2-2-----------------   (2x)
D|-0-0-0-0-0-0-0-0-0-0-0-0-----------------
A|-----------------------------------------
E|-----------------------------------------



        A            E
I was cryin' when I met you
          C#m        D
Now I'm tryin to forget you
A                E         D5
  Your Love is sweet, misery
        A             E
I was cryin' just to get you
         F#m     D
Now I'm dyin' I let you
A              E                      D5
  Do what you do what you do down to me, baby, baby, baby, baby
Base do Solo de Gaita e do Final:


   A          E          C#m
E|------0----------0-----------------------
B|--------2----------0--------5------------
G|----------2----------1--------6----------
D|-2---------------------6--------6--------
A|-0--0-------2----------4--4--------------
E|------------0--0-------------------------


   D          A           E
E|------2-----------0----------0-----------
B|--------3-----------2----------0---------
G|-2--------2-----------2----------1-------
D|-0--0-------2----------------------------
A|------------0---0-------2----------------
E|------------------------0--0-------------


   D
E|------2----------2-----------------------
B|--------3----------3---------------------
G|-2--------2-2--------2-------------------
D|-0--0-------0--0-------------------------
A|-----------------------------------------
E|-----------------------------------------


   A          E          F#m
E|------0----------0----------2------------
B|--------2----------0----------2----------
G|----------2----------1----------2--------
D|-2---------------------------------------
A|-0--0-------2----------4-----------------
E|------------0--0-------2--2--------------


   D          A           E
E|------2-----------0----------0-----------
B|--------3-----------2----------0---------
G|-2--------2-----------2----------1-------
D|-0--0-------2----------------------------
A|------------0---0-------2----------------
E|------------------------0--0-------------


   D
E|------2----------2-----------------------
B|--------3----------3---------------------
G|-2--------2-2--------2-------------------
D|-0--0-------0--0-------------------------
A|-----------------------------------------
E|-----------------------------------------



   D5
E|-----------------------------------------
B|-3-3-3-3-3-3-3-3-3-3-3-3-----------------
G|-2-2-2-2-2-2-2-2-2-2-2-2-----------------   (variações do solo e do final 2x)
D|-0-0-0-0-0-0-0-0-0-0-0-0-----------------
A|-----------------------------------------
E|-----------------------------------------



Improviso - Pentatônica de Lá Maior


E|-------------------------------14-17-----
B|-------------------------14-17-----------
G|-------------------14-16-----------------
D|-------------14-16-----------------------
A|-------14-16-----------------------------
E|-14-17-----------------------------------



E|-------------------------------17-19-----
B|-------------------------17-19-----------
G|-------------------16-18-----------------
D|-------------16-19-----------------------
A|-------16-19-----------------------------
E|-17-19-----------------------------------

Comentários 33

  • Antonio Antonio: Postado em 06/12/2014 17:50

    Como a musica tá em D, se tem um E nela? Alguém pode me tirar essa dúvida?

  • jullio.santana.5 jullio.santana.5: Postado em 30/09/2013 20:36

    queria no violao T_T
    deu pra tirar um pouco até

  • vitorcapslock vitorcapslock: Postado em 23/07/2012 15:37

    faz no violão

  • martintejera martintejera: Postado em 26/01/2012 11:59

    eu odeio video aula

  • madson11 madson11: Postado em 25/01/2012 15:40

    minha video aula nem ta aindo ta fail qual batida?

  • bahaerosmith bahaerosmith: Postado em 23/01/2012 21:45

    Finalmente , depois de tantos pedidos saiu uma video aula do Aero :DDDD

  • brunaoo09 brunaoo09: Postado em 21/01/2012 21:43

    Demoro mais saiu video aula da melhor banda de todas!

Exibindo 10 de 33 comentários Mostrar mais ver todos »
Composição: Alex Roberts / Chris Rojas / Hebert Vianna / Joe Perry / Shears / Steven Tyler
Esse não é o compositor? Avise-nos.
Contribuição: tiddyk_4ever Correções: v.inny e mais 1 »
Exibir acordes »
publicidade
fechar