Bon Jovi

Always

1.038.662 exibições
Tom: A
Introdução: E5  A5  C#5  B5  A5


Primeira Parte:

This Romeo is bleeding
But you can't see his blood
It's nothing but some feelings
That this old dog kicked up
It's been raining since you left me
Now I'm drowning in the flood
You see I've always been a fighter
But without you I give up

I can't sing a love song
Like the way it's meant to be
Well I guess I'm not that good anymore
But, babe, that's just me


Primeiro Refrão:

And I will love you, baby
Always
And I'll be there
Forever and a day

Always
E5
I'll be there

Till the stars don't shine
        ( F# )
Till the heavens burst

And the words don't rhyme
         A5
I know when I die

You'll be on my mind
       B5       A5   B5
And I love you, al__ways


Segunda Parte:


   C#m       E/G#      A9        E
E|------0---------0---------0---------0-----|
B|-5----5----0----5---------0---------0-----|
G|---6-------4---------2---------1----------|
D|---6---------6---------2---------4--------|
A|---------------------------------2--------|
E|------------------------------------------|



   C#m       E/G#      A9        E
E|------0---------0---------0---------0-----|
B|-5----5----0----5---------0---------0-----|
G|---6-------4---------2---------1----------|
D|---6---------6---------2---------4--------|
A|---------------------------------2--------|
E|------------------------------------------|


          C#m
Now your pictures that

You left behind
          E/G#
Are just memories

Of a different life
           A9
Some that made us laugh

Some that made us cry
          E
One that made you

Have to say goodbye

          C#m
What I'd give to run my fingers

Through your hair
E/G#
     To touch your lips

To hold you near
          A9
When you say your prayers

Try to understand
      E
I've made mistakes

I'm just a man


   A              B        A  B
E|------------------------------------------|
B|-----5-5-----5--4-----4--2--4-------------|
G|---6-----6------4-4------2--4-------------|
D|-7---------7----4---4----2--4-------------|
A|------------------------------------------|
E|------------------------------------------|


When he holds you close

When he pulls you near
When he says the words
You've been needing to hear
       A
I wish I was him

Cause those words are mine
    B
To say to you
         A       B
Till the end of time and

(Solo da Segunda Parte)


E|-/9--9~---9-----------------------------------------|
B|----------------------------------------------------|
G|------------11b13r11p9-11~--------------------------|
D|----------------------------------------------------|
A|----------------------------------------------------|
E|----------------------------------------------------|



Segundo Refrão:

E5      B5          F#5
I will love you, baby
C#5  B5
Al__ways
    E5
And I'll be there
   B5          A5
Forever and a day
C#5  B5
Al__ways


Ponte:

D5                       G5         A5
   If you told me to cry    for you

I could
D5                       G5         A5
   If you told me to die    for you
        B5
I would
        B5/A       G5
Take a look at my face

             F#5          A5
There's no price I won't pay

To say these words to you


   Bm       Bm/A    G5       F#5     A5
E|------------------------------------------|
B|-----3----2--3--------3----2--3-----------|
G|-4----------------0----------------2------|
D|-4-4--------------0-0--------------2------|
A|-2---------------------------------0------|
E|------------------3-----------------------|


Primeiro Solo:

(Parte 1)


E|----------------------------------------------------|
B|----------------------------------------------------|
G|------4h6--------4-6--------------------------------|
D|-4h6------4h6~-------4h6~---4b6r4-2-4---------------|
A|--------------------------------------2-2~----------|
E|----------------------------------------------------|


(Parte 2)


E|----------------------------------------------------|
B|----------------------------------------------------|
G|----------------------------------------------------|
D|--------2-4b6r4~--p2-------2-4b6-4~--p2-------2-----|
A|----2-4--------------4-2-4--------------4-2-4-------|
E|-/4-------------------------------------------------|



E|----------------------------------------------------|
B|----------------------------------------------------|
G|----------------------------------------------------|
D|-4b6r4p2------2--4b6r4p2-4~-------------------------|
A|---------4~-----------------------------------------|
E|----------------------------------------------------|


(Parte 3)


E|-/14-12p9-9\7-7/12-12\9-9\7-7-x---------------------|
B|-/14-12p9-9\7-7/12-12\9-9\7-7-x-7b9r7p5-7~--12b14~--|
G|----------------------------------------------------|
D|----------------------------------------------------|
A|----------------------------------------------------|
E|----------------------------------------------------|


(Parte 4)


E|----------------------------------------------------|
B|-14-12-14-12h14-12----12h14-12----12-14-12h14-12----|
G|-13----------------13----------13----------------13-|
D|----------------------------------------------------|
A|----------------------------------------------------|
E|----------------------------------------------------|



E|-------12-b16r14p12-14~---15b16--14b16r14p12--------|
B|-12-14---------------------------------------14~----|
G|----------------------------------------------------|
D|----------------------------------------------------|
A|----------------------------------------------------|
E|----------------------------------------------------|


(Parte 5)


E|----------------------------------------------------|
B|-12h14-12~------------------------------------------|
G|----------------------------------------------------|
D|----------------------------------------------------|
A|----------------------------------------------------|
E|----------------------------------------------------|



Terceira Parte:

Well there ain't no luck
In this loaded dice
But babe if you give me just
One more try
        A5
We can pack up our old dreams

And our old lives
           B5
We'll find a place
  A5                  B5
Where the sun still shines and


Terceiro Refrão:

E5      B5          F#5
I will love you, baby
C#5  B5
Al__ways
    E5
And I'll be there
   B5          A5
Forever and a day
C#5  B5
Al__ways
E5
I'll be there
Till the stars don't shine
          F#5
Till the heavens burst

And the words don't rhyme
         A5
I know when I die

You'll be on my mind
       B5       A5  B5
And I love you, al_ways

( E5  B5  C#5  B5  A5 )

Solo Final:

(Parte 1)


E|----------------------------------------------------|
B|----------------------------------------------------|
G|-b13-b13r11--9~~------------------------------------|
D|------------------9h11-9~---------------------------|
A|----------------------------------------------------|
E|----------------------------------------------------|


(Parte 2)


E|-------------14b16r14p12----------------------------|
B|-12b14r12~~--------------14~---12~------------------|
G|-------------------------------11~------------------|
D|----------------------------------------------------|
A|----------------------------------------------------|
E|----------------------------------------------------|


(Parte 3)


E|----------------------------------------------------|
B|----------------------------------------------------|
G|--------------9h11p9----------------------9-11b13---|
D|-------9--11--9-------11--9--9h11~---9h11-----------|
A|-9/11-----------------------------------------------|
E|----------------------------------------------------|



E|----------------------------------------------------|
B|-12----------------12b14~---------------------------|
G|----b13r11p9--11~-----------------------------------|
D|----------------------------------------------------|
A|----------------------------------------------------|
E|----------------------------------------------------|



E|----------------------------------------------------|
B|----------------------------------------------------|
G|-11b13-b13-b13-b13-b13-b13-b13-b13-b13r11-9~--------|
D|----------------------------------------------------|
A|----------------------------------------------------|
E|----------------------------------------------------|


(Parte 4)


E|----------------------------------------------------|
B|----------------------------------------------------|
G|------9----9-----------9----------------9-----------|
D|------9----9h11p9------9h11p9-----------9h11--------|
A|-9h11---11--------11-9--------11-9-9h11-------------|
E|----------------------------------------------------|



E|----------------------------------------------------|
B|----------------------------------------------------|
G|------9-9-9-----------9-9----9-9----9-9----9-9------|
D|------9-9-9h11p9------9-9----9-9----9-9----9-9------|
A|-9h11------------9h11-----11-----11-----11-----11---|
E|----------------------------------------------------|



E|----------------------------------------------------|
B|----------------------------------------------------|
G|-9-9-9-9-9b11p9------------9-----------------------9|
D|-9-9-9-9-9------11-9-9h11--9h11p9-------------9-11--|
A|----------------------------------11\9-7-9/11-------|
E|----------------------------------------------------|


(Parte 5)


E|--------12--------12--------12--------12------------|
B|--------12--------12--------12--------12------------|
G|-11b13-----11b13-----11b13-----11b13-----11b13r11p9-|
D|----------------------------------------------------|
A|----------------------------------------------------|
E|----------------------------------------------------|



E|----------------------------------------------------|
B|----------------------------------------------------|
G|----9~--11b13---------------------------------------|
D|-11-------------------------------------------------|
A|----------------------------------------------------|
E|----------------------------------------------------|


(Parte 6)


E|---------------14b16r14p12-14~---12-14b16-----------|
B|------12-12-12--------------------------------------|
G|-/13------------------------------------------------|
D|----------------------------------------------------|
A|----------------------------------------------------|
E|----------------------------------------------------|



E|-14b16~~r14p12--------------------------------------|
B|---------------14~----------------------------------|
G|----------------------------------------------------|
D|----------------------------------------------------|
A|----------------------------------------------------|
E|----------------------------------------------------|


(Parte 7)


E|----------------------------------------------------|
B|-12h14-12-------------------------------------------|
G|----------13\11-9---------9-9~--------9-9~----------|
D|------------------11-9h11--------9h11---------------|
A|----------------------------------------------------|
E|----------------------------------------------------|



E|---------------9------------------------------------|
B|---------------------12-----------------------------|
G|------9-11b13----b13----b13r11p9----9-11b13---------|
D|-9h11----------------------------11-----------------|
A|----------------------------------------------------|
E|----------------------------------------------------|



E|----------------------------------------------------|
B|-12b14~~--12b14-b14r12~-----------------------------|
G|----------------------------------------------------|
D|----------------------------------------------------|
A|----------------------------------------------------|
E|----------------------------------------------------|


(Parte 8)


E|----------------------------------------------------|
B|----------------------------------------------------|
G|-11b13-b13-b13-b13-b13-b13r11p9------11b13-b13r11p9-|
D|--------------------------------11~-----------------|
A|----------------------------------------------------|
E|----------------------------------------------------|



E|----------------------------------------------------|
B|----------------------------------------------------|
G|----------------------------------------------------|
D|-11~------------------------------------------------|
A|----------------------------------------------------|
E|----------------------------------------------------|
    Composição: Jon Bon JoviColaboração e revisão:
    • v.inny
    • rodrigoandrade
    • felipevieira.rj
    • tico_net
    • +3

    Comentários 70

    • arieelvs arieelvs: Postado em 12/11/2014 15:59

      CADE A CIFRA CERTA? :/

    • fernando.zambon.98 fernando.zambon.98: Postado em 17/10/2014 21:34

      Esperei anos por essa video aula !!! Ai aprendi a tocar a musica antes deles fazerem ! -_-

    • Matheus Matheus: Postado em 12/10/2014 00:02

      Já mudaram a cifra? Aff não ta na mesma da video aula ¬¬

    • Henrique Henrique: Postado em 08/10/2014 14:05

      Eu senti a espontaniedade no ar (y)

    • faustino.artur faustino.artur: Postado em 06/10/2014 20:52

      Boa a video-aula...mas o menino que cantou dá umas escorregadas (compreensível, nem o jon aguenta mais)..fora o inglês do paquistão neh...rs

    • Matheus Matheus: Postado em 29/09/2014 17:36

      Vinícios Dias Foda!! Vlw pela video aula! \m/

    • Leir Pedro Leir Pedro: Postado em 16/08/2014 18:07

      Video aula pf!!

    • Carlos Augusto Carlos Augusto: Postado em 24/07/2014 19:08

      video aula por favor !!!

    • Raynier Raynier: Postado em 11/06/2014 17:15

      Video-Aula Pf!!

    • allef allef: Postado em 27/04/2014 20:53

      não tem video aula do elvis nem do bnonjovi elvis o rei do roccccccccck cifraclub n ter aula do rei do rock é fodaaa

    Exibindo 10 de 70 comentários Mostrar mais ver todos »

    conseguiu tocar?

    • Felipe
    • Carol
    • wellingtonheavy
    • rodrigo.balada.5
    • marlon jean
    • Felipe
    • Danylo
    • •••
    isaac1.829 visualizações
      ver covers de outras músicas »
      0:00 / 0:00

      Capítulos

        1 versão de partiturasformatodownloadscontribuição
        play/pausefechar subir/descer velocidade
        6ª corda E5ª corda A4ª corda D3ª corda G2ª corda B1ª corda E
          acordes
          publicidad
          fechar
          ok