Always

Bon Jovi

 Bon Jovi
Tom: D
		
Intro: E  A9  C#m  B  A9


    E                 A9      C#m  B    A9
E|-0-0-2-4-4h5-4-2-0-0-0-0-0-----------0-0-0-0-0-0-0-0-|  
B|-0-0---------------0-0-0-0-5--5-4--4-0-0-0-0-0-0-0-0-|             
G|-1-1---------------2-2-2-2---6----4--2-2-2-2-2-2-2-2-|
D|-2-2---------------2-2-2-2--6----4---2-2-2-2-2-2-2-2-|
A|-2-2---------------0-0-0-0-----------0-0-0-0-0-0-0-0-|
E|-0-0-------------------------------------------------|


Primeira Parte:

C#m
This romeo is bleeding
B
But you can't see his blood
A
It's nothing but some feelings
          G#m             B
That this old dog kicked up

C#m
It's been raining since you left me
          B
Now I'm drowning in the flood
A
You see I've always been a fighter
       G#m              A B
But without you I give up

C#m
Now I can't sing a love song
          B
Like the way it's meant to be
A
Well, I guess I'm not that good anymore
     B     A          B
But baby, that's just me


Refrão:

    E         B      A
And I, will love you, baby
C#m   B
Always
   E              B             A
And I'll be there forever and a day 
C#m   B
Always
E
I'll be there till the stars don't shine
             B
Till the heavens burst and

the words don't rhyme
         A
I know when I die, you'll be on my mind
          B
And I'll love you 
A B C#m A
Always

Segunda Parte:                                                     

       C#m
Now you're pictures that you left behind                      
   B
Are just memories of a different life              
A
Some that made us laugh, some that made us cry     
            G#m                 B
One that made you have to say goodbye

C#m
What I'd give to run my fingers through your hair
B
To touch your lips, to hold you near
A
When you say your prayers try to understand
          G#m                     A B C#m
I've made mistakes, I'm just a man

        C#m
When he holds you close, when he pulls you near
          B
When he says the words you've been needing to hear
     A
I'll wish I was him `cause those words are mine
    B         A        B
To say to you till the end of time

Arranjo 1:


E|-------------------------------------------------------|
B|-----5-----4-----2-----------4-----5-----4-----------4-|
G|---6-----4-----2-----------4-----6-----4-----------4---|
D|-6-----4-----2---------6-4-----6-----4---------6-4-----|
A|---------------------6-----------------------6---------|
E|-------------------4-----------------------4-----------|



Refrão:

    E        B           A
And I, will love you baby
C#m   B
Always
    E               B            A
And I'll be there forever and a day 
C#m   B
Always

Ligação:

 D                  G
If you told me to cry for you
     A
I could
 D                   G      A
If you told me to die for you
    Bm
I would
         A           G
Take a look at my face
           F#m               A
 There's no price I won't pay

To say these words to you

Base Solo: E  B  F#m  C#m  B  E  B  A  B  A  B  A  B

Solo:


E|----------------------------------------------------------------------------------------------------|
B|----------------------------------------------------------------------------------------------------|
G|----------------------------------------------------------------------------------------------------| 
D|------9h11------9h11-------------------------------------------------------------------------2-4b6r4| 
A|-5/11------9h11~-----9h11~-11~-9-7-9--------------7-9b11r9-7-7h9-------7-9b11r9-7-9\4-4-2-4~--------|
E|-------------------------------------7-7~-4-7-7/9----------------9-7-9~-----------------------------|



E|----------------------------------------------------------------------------------------------------|
B|----17b19r17-17\14-14\12-12/17-17\14-14\12-12\10--------------------------------------------12-14---|
G|----16b18r16-16\13-13\11-11/16-16\13-13\11-11\9--11b13r11-11b13r11-11p9-11-16b18r16------13---------|
D|-4~---------------------------------------------------------------------------------9/14------------|
A|----------------------------------------------------------------------------------------------------|
E|----------------------------------------------------------------------------------------------------|

 

E|-12-------12----------12-12-------------12-14b16r14p12-14~-16b17r16-16~-12-----12b14r12-------------|
B|-14p12----14p12----12-14-14p12----12-14------------------------------------14~----------------------|
G|-------13-------13-------------13-------------------------------------------------------------------|
D|----------------------------------------------------------------------------------------------------|
A|----------------------------------------------------------------------------------------------------|
E|----------------------------------------------------------------------------------------------------|


Terceira Parte:

     A
Well, there ain't no luck

In these loaded dice
      B
But baby if you give me just one more try
         A
We can pack up our old dreams

And our old lives
        B          A                B
We'll find a place where the sun still shines

E         B        A
And I, will love you, baby
C#m   B
Always
E               B                   A
And I'll be there forever and a day
C#m   B
Always
E
I'll be there till the stars don't shine
             B
Till the heavens burst and

The words don't rhyme
       A
I know when I die, you'll be on my mind
          B
And I'll love you 
A B E
Always
Texto Colunas
Alterar tom ½ tom ½ tom
afinação acordes na letra esconder tabs mais »

Comentários 64

  • Leir Pedro Leir Pedro: Postado em 16/08/2014 18:07

    Video aula pf!!

  • Carlos Augusto Carlos Augusto: Postado em 24/07/2014 19:08

    video aula por favor !!!

  • Raynier Raynier: Postado em 11/06/2014 17:15

    Video-Aula Pf!!

  • allef allef: Postado em 27/04/2014 20:53

    não tem video aula do elvis nem do bnonjovi elvis o rei do roccccccccck cifraclub n ter aula do rei do rock é fodaaa

  • rick.lourenso rick.lourenso: Postado em 24/04/2014 20:22

    Video aula !!!

  • icaro2010 icaro2010: Postado em 12/03/2014 22:23

    video aula

  • Paulo Paulo: Postado em 20/02/2014 09:39

    Video aula aew gente ;)

  • gustavo.baptista.587 gustavo.baptista.587: Postado em 06/12/2013 14:51

    Por Favor! vídeo aula pls!!

  • joao.ebling1 joao.ebling1: Postado em 15/11/2013 00:01

    tem até maria cecilia e rodolfo e nao tem bom jovi

  • diego.rafael diego.rafael: Postado em 26/10/2013 18:19

    Tentem tirar o solo da versão ao vivo que preferirem, é muito show! Fica aí a dica ;D

Exibindo 10 de 64 comentários Mostrar mais ver todos »
Composição: James Scheffer / Jon Bon Jovi / Nick Hodgson
Esse não é o compositor? Avise-nos.
Contribuição: ladon Correções: v.inny , tico_net e mais 4 »
  1. Até Você Voltar - Henrique e Juliano Manteve-se 103.044 exibições
  2. Domingo de Manhã - Marcos e Belutti Manteve-se 82.664 exibições
  3. Cuida Bem Dela - Henrique e Juliano Manteve-se 48.276 exibições
  4. Recaídas - Henrique e Juliano Manteve-se 43.983 exibições
  5. Pra Você - Onze:20 Manteve-se 43.641 exibições
  6. Só Os Loucos Sabem - Charlie Brown Jr. Manteve-se 33.211 exibições
  7. Pais e Filhos - Legião Urbana Manteve-se 32.150 exibições
  8. Logo Eu - Jorge e Mateus Manteve-se 31.855 exibições
  9. Raridade - Anderson Freire Manteve-se 29.976 exibições
  10. Evidências - Chitãozinho & Xororó Manteve-se 24.662 exibições
  1. Henrique e Juliano- Manteve-se 276.116 exibições
  2. Jorge e Mateus- Manteve-se 231.654 exibições
  3. Legião Urbana- Manteve-se 204.817 exibições
  4. Charlie Brown Jr.- Manteve-se 157.532 exibições
  5. Fernandinho- Manteve-se 118.928 exibições
  6. Bruno e Marrone- Manteve-se 118.240 exibições
  7. Luan Santana- Manteve-se 103.285 exibições
  8. Marcos e Belutti- Manteve-se 100.891 exibições
  9. Thalles Roberto- Manteve-se 92.651 exibições
  10. The Beatles- Manteve-se 90.039 exibições
Exibir acordes »

Cifras e tabs

Fórum Cifra Club

Aprenda

Cifra Club News

Mais Serviços Cifra Club ID

Studio Sol

©1996 - 2014 Cifra Club · o primeiro, maior e mais acessado do Brasil · 339 mil músicas · 6.3 milhões pessoas cadastradas

publicidade
fechar