Bon Jovi

Livin' On A Prayer

528.620 exibições
Tom: G
Introdução: (Riff Principal)

  P.M  .   . . .

E|----------------------------------------------------|
B|----------------------------------------------------|
G|----------------------------------------------------|
D|----------------------------------------------------|
A|---7---5-------5------------------------------------|
E|-0---0---0-0-7--------------------------------------|


(Once upon a time not so long ago)

Primeira Parte:


Tommy used to work on the docks

Union's been on strike
                             C5   D5
Hes down on his luckm, it's tough
   (Riff Principal)
So tough


Gina works the diner all day

Working for her man
                             C5  D5
She brings home her pay for love
    (Riff Principal)
For love


Primeira Ponte:

                        C5  D5
She says: We've got to hold on
               E5
To what we've got
           C5             D5
'Cause it doesn't make a difference
                  E5
If we make it or not
       C5      D5
We've got each other
              E5      C5
And that's a lot for love
       D5
We'll give it a shot


Primeiro Refrão:

E5  C5         D5
O___oh, we're half way there
  G5  C5   D5
Who___ah, living on a prayer
 E5      C5
Take my hand
       D5
We'll make it, I swear
  G5  C5   D5
Who___ah, living on a prayer


(Riff Principal)


Segunda Parte:

(Riff Principal)

Tommy got his six string in hock

Now, he's holding in what he used

To make it talk so tough

It's tough

(Riff 1)

                                  H.A \

E|--------------20b22~---15---------------------------|
B|--------------------------17~----12-----------------|
G|-14b16r--14~~--------------------12-----------------|
D|----------------------------------------------------|
A|----------------------------------------------------|
E|----------------------------------------------------|



Gina dreams of running away

When she cries in the night

Tommy whispers: Baby, it's okay

Someday


Segunda Ponte:

              C5  D5
We've got to hold on
               E5
To what we've got
           C5             D5
'Cause it doesn't make a difference
                  E5
If we make it or not
       C5      D5
We've got each other
              E5      C5
And that's a lot for love
       D5
We'll give it a shot


Segundo Refrão:

E5  C5         D5
O___oh, we're half way there
  G5  C5   D5
Who___ah, living on a prayer
 E5      C5
Take my hand
       D5
We'll make it, I swear
  G5  C5   D5
Who___ah, living on a prayer
 C5
Living on a prayer


Solo: E5  C5  D5
      G5  C5  D5
      E5  C5  D5
      G5  C5  E5


E|----------------------------------------------------|
B|----------------------------------------------------|
G|----------------------------------------------------|
D|-------------5--7--7b8r7----------------------------|
A|-7--5--7~-----------------5--5~~--------------------|
E|----------------------------------------------------|


E|-----12-14-15---------------------------------------|
B|---x-----------15-12-13--15--15b17-15b17r15--15~\---|
G|-x--------------------------------------------------|
D|----------------------------------------------------|
A|----------------------------------------------------|
E|----------------------------------------------------|


E|----------------------------------------------------|
B|-x-x-12--x-x-13--x-x-12--x-x------------------------|
G|-x-x-12--x-x-14--x-x-12--x-x-11b12r11---------------|
D|--------------------------------------12------------|
A|-----------------------------------------12---------|
E|----------------------------------------------------|


E|-----12-14-15---------------------------------------|
B|---x-----------15-12-13--12-----15b17-15b17~~-------|
G|-x--------------------------12----------------------|
D|----------------------------------------------------|
A|----------------------------------------------------|
E|----------------------------------------------------|


E|-------------------14h15h17-17b19~------------------|
B|----------13h15h17----------------------------------|
G|-12h14h16-------------------------------------------|
D|----------------------------------------------------|
A|----------------------------------------------------|
E|----------------------------------------------------|



Terceira Ponte:

              C5  D5
We've got to hold on
          E5
Ready or not
     C5
You live for the fight
            D5
When that's all that you've got


Terceiro Refrão:

G5  Eb5        F5
O___oh, we're half way there
  Bb5  Eb5  F5
Who____ah, living on a prayer
 G5      Eb5
Take my hand
       F5
We'll make it, I swear
  Bb5  Eb5  F5
Who____ah, living on a prayer

G5  Eb5        F5
O___oh, we're half way there
  Bb5  Eb5  F5
Who____ah, living on a prayer
 G5      Eb5
Take my hand
           F5
And we'll make it, I swear
  Bb5  Eb5  F5
Who____ah, living on a prayer

G5  Eb5        F5
O___oh, we're half way there
  Bb5  Eb5  F5
Who____ah, living on a prayer
    Composição: Jon Bon Jovi / Richie Sambora / Desmond ChildColaboração e revisão:
    • v.inny
    • Bruno Lamoglia
    • corinthiano7.0
    • FelipeKF3
    • +3

    Comentários 52

    140 .
    • David Rodrigues de oliveira David Rodrigues de oliveira: Em 03/02/2015 02:18

      usei o efeito FLANGER pra ficar parecido com TALK BOX e ficou muito massa

    • David Rodrigues de oliveira David Rodrigues de oliveira: Em 03/02/2015 02:17

      musica muito top usei o efeito do pedal FLANGER pra ficar parecido com TALK BOX e ficou muito bom , bela musica

    • David Rodrigues de oliveira David Rodrigues de oliveira: Em 03/02/2015 02:17

      musica muito top usei o efeito do pedal FLANGER pra ficar parecido com TALK BOX e ficou muito bom , bela musica

    • David Rodrigues de oliveira David Rodrigues de oliveira: Em 03/02/2015 02:17

      musica muito top usei o efeito do pedal FLANGER pra ficar parecido com TALK BOX e ficou muito bom , bela musica

    • Miguel Miguel: Em 29/10/2014 20:05

      o q é isso ''talk box''?

      • Ismah Ismah: Em 08/05/2015 03:56

        Um pedal que tem um falante pequeno, aí o som vai por uma mangueira até na sua boca. Então com o abre e fecha da boca, se gera efeito.

    • vinyhendrix vinyhendrix: Em 23/08/2014 19:05

      Easy e clássica ^^

    • joaocarnabrava joaocarnabrava: Em 21/08/2014 15:05

      muito fodaaaa : D

    • luis luis: Em 20/08/2014 11:55

      toquei sem a video aula saiu tudo errado saiu a video aula deu para tocar de boa muito foda

    • Eduardo Eduardo: Em 20/08/2014 11:08

      Poste a video aula da musica CANON IN D para VIOLÃO

    Exibindo 10 de 52 comentários Mostrar mais ver todos »
    140 cancelar
    0:00 / 0:00

    Capítulos

      2 versões de baixo exibições contribuição e correção
      1 versão de bateria exibições contribuição e correção
      1 versão de partiturasformatodownloadscontribuição
      play/pausefechar subir/descer velocidade
      6ª corda E5ª corda A4ª corda D3ª corda G2ª corda B1ª corda E
        acordes
        versão revisada v.inny instrutor de guitarra
        publicidad
        fechar
        ok